by Fionn Regan tabs | tabbed by zwieback-dude
1 2 3 4 5
6 votes
print
View: All Comments Corrections Best Voted Corrections
August 25 2008, 06:11 pm by prouders |
Can someone just confirm for me, this isn't standard tuning is it?
August 26 2008, 06:07 am by zwieback-dude |
nope, this isn't standard tuning. tune both e strings one full step down to d and tune the b string 1 full step down to a. then use a capo on the 4th fret.
January 17 2009, 08:29 am by Lemonade94 |
Great tab, tuning was annoying though, but i got it.
Too bad there's not that many tabs up here. :(
+3   April 25 2009, 02:08 am by ff368 |
Good tab! Just one correction - at the start of the chorus,

d|-------------------------------------------------------0---------|
a|-------0-------0-------0-------0-------0-------0---------------0-|
g|---4-------4-------0-------0-------7-------7-------0-------0-----|
d|-----0---0---0-------0-------0-------0-------0-------0-------0---|
a|-2---------------4-------7-------9-------9-----------------------|
d|-------------------------------------------------5-------5-------|

should be

d|-------------------------------------------------------0---------|
a|-------0-------0-------0-------0-------0-------0---------------0-|
g|---4-------4-------0-------0-------7-------7-------0-------0-----|
d|-----0-------0-------0-------0-------0-------0-------0-------0---|
a|-2-------5-------4-------7-------5-------9-----------------------|
d|-------------------------------------------------5-------5-------|

and likewise the second time it appears. If you listen carefully, he only plays the 9th fret once - the first time he plays 5 so the bass line goes 2 5 4 7 5 9 instead of 2 5 4 7 9 9. And the first 5 is the same as playing the open D-string like you wrote, but I feel it goes better with the pattern of the song to play the 5th on the A.
September 1 2009, 08:20 pm by goodintheory |
cheers man! this is an awesome tab
Please select
Post your    Comment OR Correction :

NOTE: If you want to post a tab,
please use [tab] [/tab] tag to do this.
© 2014 Ultimate-Guitar.com or its affiliates. All rights reserved     About | Help | Site Map | Link To Us | TOS | Privacy Policy | Advertise | Contact