by Sponge Cola tabs | tabbed by f0nti
1 2 3 4 5
14 votes
print
December 7 2008, 09:11 pm by doobidoo |
ayus din ganito din sepra ko..
idagdag mo to sa bago magchorus

|------------------------------------------|
|-5-6-5-3--1p0-----------------------------|
|---------------3h5------------------------|
|------------------------------------------|
|------------------------------------------|
|------------------------------------------|
December 8 2008, 05:52 am by doobidoo |
GANITO PALA
|------------------------------------------|
|-5-6-5-3--1p0-----------------------------|
|---------------2h4------------------------|
|------------------------------------------|
|------------------------------------------|
|------------------------------------------|
December 16 2008, 11:08 pm by markchordz |
ok din tong sepra..wrong spelling lang un artist...hehe dapat spongecola
March 25 2013, 07:48 pm by njpre |
Wakustik na ung tunog :) 4 stars ****
Please select
Post your    Comment OR Correction :

NOTE: If you want to post a tab,
please use [tab] [/tab] tag to do this.
© 2014 Ultimate-Guitar.com or its affiliates. All rights reserved     About | Help | Site Map | Link To Us | TOS | Privacy Policy | Advertise | Contact