by The Devil Wears Prada tabs | tabbed by Unregistered
1 2 3 4 5
4 votes
print
View: All Comments Corrections
March 19 2009, 02:57 pm by jakewynnrocks |
great song, cant wait for the album!!!
March 19 2009, 06:19 pm by rsxkilla |
OMFG GOOD JOB I LOVE YOU FOR THIS!! PRADA FOREVER 5stars sir
March 20 2009, 01:25 pm by Redsox4ever5955 |
wow great job. i am so exited about the new album!
March 24 2009, 12:53 am by xymed01 |
this is great =]
March 25 2009, 11:17 pm by xymed01 |
with delay
e|--------------------------------------------------------------|
B|-----------------------------10101010-8--11-10-131313131313---|
G|-99999--10--9-999-1212-1010-----------------------------------| 2X
D|--------------------------------------------------------------|
A|--------------------------------------------------------------|
D|--------------------------------------------------------------|
that part is
played like this =]
March 25 2009, 11:18 pm by xymed01 |
with delay
e|--------------------------------------------------------------|
B|-----------------------------10101010-8--11-10-131313131313---|
G|-77777--10--9-999-1212-1010-----------------------------------| 2X
D|--------------------------------------------------------------|
A|--------------------------------------------------------------|
D|--------------------------------------------------------------|

sry i meant this
April 1 2009, 06:03 pm by pmbernal |
DUDE! Tab out the new song, "Assistant to the Regional Manager!" PLEASE!
April 18 2009, 08:13 pm by rafyraf09 |
e|---------------------------------------|
B|---------------------------------------|
G|---------------------------------------|
D|---------------------------------------|
A|-12----13-12-15-13-12----------10-8-7--|
D|---000----------------00000000---------|

x2
e|---------------------------------------|
B|---------------------------------------|
G|---------------------------------------|
D|---------------------------------------|
A|-12----13-12-15-13-12----------8-7-5---|
D|---000----------------00000000---------|
April 18 2009, 08:14 pm by rafyraf09 |
e|---------------------------------------|
B|---------------------------------------|
G|---------------------------------------|
D|---------------------------------------|
A|-12----13-12-15-13-12----------10-8-7--|
D|---000----------------00000000---------|

x2
e|---------------------------------------|
B|---------------------------------------|
G|---------------------------------------|
D|---------------------------------------|
A|-12----13-12-15-13-12----------8-7-5---|
D|---000----------------00000000---------|
April 18 2009, 08:15 pm by rafyraf09 |
e|---------------------------------------|
B|---------------------------------------|
G|---------------------------------------|
D|---------------------------------------|
A|-12----13-12-15-13-12----------10-8-7--|
D|---000----------------00000000---------|

x2
e|---------------------------------------|
B|---------------------------------------|
G|---------------------------------------|
D|---------------------------------------|
A|-12----13-12-15-13-12----------8-7-5---|
D|---000----------------00000000---------|
April 18 2009, 08:19 pm by rafyraf09 |
e|---------------------------------------|---------------------------------------|
B|---------------------------------------|---------------------------------------|
G|---------------------------------------|---------------------------------------|
D|---------------------------------------|---------------------------------------|
A|-12----13-12-15-13-12---------10-8-7---|-12----13-12-15-13-12---------8-7-5----|
D|---000----------------00000000---------|---000----------------00000000
April 20 2009, 12:32 am by joseluis92 |
@ rafyra09: hahahaha thats what i have in my tab, but apparently im wrong for some reason...
April 24 2009, 05:27 pm by Shredder Guitar |
i actually saw them in Des Moines, Iowa on Easter. They played this, and it was freagin amazing. =] great tab.
Please select
Post your    Comment OR Correction :

NOTE: If you want to post a tab,
please use [tab] [/tab] tag to do this.
© 2014 Ultimate-Guitar.com or its affiliates. All rights reserved     About | Help | Site Map | Link To Us | TOS | Privacy Policy | Advertise | Contact