by Nirvana tabs | tabbed by folklore666
1 2 3 4 5
52 votes
print
View: All Comments Corrections Best Voted Corrections
+4   August 14 2009, 12:42 pm by David_Bowie=GOD |
Everything is right except the intro/verse, it should be played a whole step down like this

e|----------------------------------------------------------------|
b|----------------------------------------------------------------|
G|-2--2-2-2/6--6-6-0----------4--4-4-0----------------------------|
D|-2--2-2-2/6--6-6-0-4--4-4-x-4--4-4-0----------------------------|
A|-0--0-0-0/4--4-4-0-4--4-4-x-2--2-2-0----------------------------|
E|-------------------2--2-2-x-------------------------------------|
+1   August 24 2009, 08:38 am by folklore666 |
Yes your right, it is i changed it.
September 5 2009, 08:25 pm by cachuchis |
There are so many versions and ways to play it but all souns accurate cant decide wich way to play it
September 19 2009, 01:42 pm by ragarideath |
Sounds good, only the intro/verse i think is B5/D#5 G#5-C#5 ...
-1   April 6 2010, 07:30 pm by grungerocker94 |
Try tuning Your Guitar Down 1 Half Step And Play This Song then it will sound like how COBAIN Played At The Reading concert
August 28 2010, 08:59 am by iron-maiden-666 |
I... Like... You...
October 7 2010, 09:36 pm by 4lito4 |
The reason they played it a whole step higher is because they have the guitar tuned that way... thats how they play super low keyed notes
+2   March 3 2012, 02:19 pm by Brandon1993 |
well...ya know its down a whole step right?
thats probably why its higher when they play it live
because they weren't tuned that low live when they played it
therefore it sounds different

just felt like sharing that ._.
June 2 2012, 11:38 pm by starcaster909 |
It is played a full step down. According to Classic Albums: Nevermind, Butch Vig (The producer) said, "since the guitars were down a full step, a harmony was difficult to achieve with vocals". You should adjust for that.
October 22 2012, 07:26 pm by Andersonrhcp22 |
G 4 8 6
D 4 8 6 6
A 2 6 6 4
E 4

watch a live version video
-1   October 22 2012, 07:29 pm by Andersonrhcp22 |
G 4 8 6
D 4 8 6 6
A 2 6 6 4
E 4
June 10 2013, 03:32 pm by ehbacon |
not right, close.
June 18 2013, 12:26 pm by ehbacon |
Interlude (Repeats from 1:33-2:23)
Just mess around with an F# chord through out the Interlude.

e|-(2)---------------(2)--------------------|
b|-(2)---------------(2)--------------------|
G|-(3)---------------(3)--------------------|
D|--4-----------------4---------------------|
A|--4-----------------4---------------------|
E|--2-2-2-2-2-2-2-2-2-2-2-2-2-2-2-2-2-2-----|

this is wrong, live you can see him play this

G|-5------------------|
D|-4------------------|
A|-3------------------|
E|-2-2-2-2-2-2-2-2-2--|
June 20 2013, 01:44 pm by jazzymatt |
I def like this way better! easier to play and sounds better

G 4 8 6
D 4 8 6 6
A 2 6 6 4
E 4
May 2 2014, 02:16 pm by peter.buzasi.7 |
This song has three versions.
a, tuned down 2 half notes (DGCfad) - on Nevermind record
b, tuned down a half note (Eb,Ab,Db,Gb,Bb,Eb) on live from cca 1992-1994
c, normal tuning (EADGBE) cca. 1991 (like on the Muddy Banks live record)

Kurt plays the same on the fretboard.
August 17 2014, 09:12 am by liamo1102 |
its actually in d standard which is why its played a tone higher live. The chorus is also played lower. the e5 and d5 should be an octave lower.
August 17 2014, 09:14 am by liamo1102 |
i play the song in drop d like this (cause i'm not gonna drop all the strings)
e|------------------------------------------------|
b|------------------------------------------------|
G|-----------------4-4-4-4-4-4-4-4----------------|
D|-2-2-2-2-0-0-0-0-4-4-4-4-4-4-4-4----------------|
A|-2-2-2-2-0-0-0-0-2-2-2-2-2-2-2-2----------------|
D|-2-2-2-2-0-0-0-0--------------------------------|

(x5)
e|---------------------------------------|------------------|
b|---------------------------------------|------------------|
G|-----------------4-4-4-4-4-4-4-4-------|------------------|
D|-0-0-0-0-0-0-0-0-4-4-4-4-4-4-4-4-------|--7~---5~---4~----|
A|-0-0-0-0-0-0-0-0-2-2-2-2-2-2-2-2-------|--7~---5~---4~----|
D|-0-0-0-0-0-0-0-0-----------------------|--7~---5~---4~----|
'I like you'

you can hear that the chords are played lower not higher in the chorus as well
Please select
Post your    Comment OR Correction :

NOTE: If you want to post a tab,
please use [tab] [/tab] tag to do this.
© 2014 Ultimate-Guitar.com or its affiliates. All rights reserved     About | Help | Site Map | Link To Us | TOS | Privacy Policy | Advertise | Contact