by Metallica tabs | tabbed by Unregistered
1 2 3 4 5
105 votes
print
View: All Comments Corrections Best Voted Corrections
March 11 2002, 12:00 am by Dj-Disclaimer |
Very detailed, acurate tab. Well done.
April 14 2002, 12:00 am by kologuitarist |
Great Tab. Good work.
April 14 2002, 12:00 am by kologuitarist |
Great Tab. Good work.
+1   May 1 2002, 12:00 am by Darth Danno |
This Tab is RIGHT on, great work...lots of fun to play!
August 19 2002, 12:00 am by M_head_666 |
This tab is f**king appauling..OMG As IF DUDE THIS IS F**KING AMAZING TOTALLY AMAZING WORK!!!
May 26 2004, 12:00 am by guitardude72565 |
this is real good good job
June 20 2004, 12:00 am by metallicarulz89 |
dude i love this is so good
June 20 2004, 12:00 am by metallicarulz89 |
dude i love u this si so good*
+3   November 6 2004, 12:00 am by kev_portugal |
nice, love the solo
November 9 2004, 12:00 am by Last_Tear_Burns |
Good stuff.
+1   November 27 2004, 12:00 am by r_lightning |
very good! thanks a lot;-)
+1   December 22 2004, 12:00 am by jolliz |
main riff is wrongly tabbed
+3   January 28 2005, 12:00 am by The_Last_Rebel7 |
ah yes..... the effects of the NWOBHM.... kick ass man.... metallica, diamond head... hell yess
March 3 2005, 12:00 am by monkey_xxx2003 |
this is the best tab on this site. you did a damn good jaob at it. applaude yourself man.
April 3 2005, 12:00 am by titan metal |
luv it, luv it
+1   August 15 2005, 12:00 am by ScottishFiction |
splendid old chap, good show
+2   March 11 2006, 03:32 pm by forwhomthebells |
welcome home the master of the four horsemen
+9   April 18 2006, 03:57 am by BUDDA |
fantastic tab, only thing is, after watchign a live video i think this is how the main riff is played.....

|------------------------------|
|------------------------------|
|------------------------------|
|------------------------------|
|---------5-----7-------8-7----|
|-0-0-0-0-3-0-0-5-0-0-0-6-5----|

i know it's the same notes and chords this was just how they (kirk at least) were playing it.
+3   April 18 2006, 04:11 am by BUDDA |
edit, the 0's are palm muted, as you can hear
+2   April 26 2006, 01:22 pm by jolliz |
budda , you are correct
+1   April 30 2006, 07:50 pm by Zero_Berserker |
Man this tab is great, i'have learn it in one day =D
May 11 2006, 11:35 am by *LedZeppelin* |
Good tab!
+2   May 21 2006, 08:45 pm by Pig Benis |
ROOOOOOOOOOOOOOOOOOOOOOOOOOOOOOOOOOOOOOOOOOOOOOOOOOOOOCK IIIIIIIIIIIIIIIIIIIIIIIIIIIISSSSSSSSSSSSS BAAAAAAAAAAAAAAAAAAAAAAACCCCCCCKKKKK
June 18 2006, 09:57 am by dustinriley13 |
amazing tab!
+1   June 20 2006, 06:19 am by Nuums |
your are so evil !!! :D perfect tab dude...
anyone that can actually play this solo is blown up in their minds!! :)
+3   June 23 2006, 07:30 am by Nuums |
but isn't the pre-chorus like this:

|------------------------------|
|------------------------------|
|*----------------------------*|
|---------7-----9---------10-9-|
|*9-9-9-9-5-9-9-7-9-9-9---8--7*|
|-7-7-7-7---7-7---7-7-7--------|

instead of:

|------------------------------|
|------------------------------|
|*----------------------------*|
|---------7-----9---------10-9-|
|*7-7-7-7-5-7-7-7-7-7-7---8--7*|
|-5-5-5-5---5-5---5-5-5--------|

+1   July 6 2006, 04:06 pm by DeMoNhUnTeRuLeS |
you have alot of this wrong. There are alot of open strings played in this song. Also you did not palm mute in many spots. I kno that alot of this is wrong because i have the official sheet music for all of Garage Inc. Im just gonna make my own tab for this song that is correct
+1   July 6 2006, 04:21 pm by DeMoNhUnTeRuLeS |
never mind. I just checked the other tabs and Am I Evil? version 3 is exactly what i was gonna put. He has it right
+1   July 22 2006, 12:06 pm by pedro_008 |
I have the Am I evil official tab, this is NOTHING like whats in the book but its still pretty good i happen to know the chorus/verse thingy go's like this:


|-----------------------
|-----------------------
|-----------------------
|-----------------------
|--------5-----7-----8-7
|0-0-0-0-3-0-0-5-0-0-6-5
pm....... .... ...

and u have the intro solo right except not the part leading up to it, once i look at the tab book i'll post it

and plus the part where the verse gets goin fast its:

|----
|----
|----
|2---
|0---
|----

not

|----
|----
|----
|----
|7---
|5---

but its all the same notes but pretty good tab man, keep it rockin
+2   July 26 2006, 02:49 pm by crazedpunk |
metallica ROCKS!!!!!
+2   August 5 2006, 03:06 pm by MaxK6 |
Very good tab
I wish you made every tab on this site
-1   September 13 2006, 05:48 pm by koregaid |
im pretty sure the riff after the intro part is wrong cause i was watching a live video of them playing it and it seems that they are playing it like this

|-------------------------------------
|-------------------------------------
|-------------------------------------
|-------------------------7-7-7-7-7-7-
|-2-------2-------2-------5-5-5-5-5-5-
|-0-0-0-0-0-0-0-0-0-0-0-0-------------
+1   September 27 2006, 01:51 pm by Scarlatti |
a lot of positive reactions :o

Worth a try learning it i guess ;)
+1   January 5 2007, 11:53 am by Ead |
i think the second lick of the solo sounds more like this..
|----11-12-11h12p11----11-12-14-11h12p11----11------------
|-12----------------12-------------------12----12-11-10---
|---------------------------------------------------------
|---------------------------------------------------------
+1   May 2 2007, 11:23 am by Frankie Sparks |
Yea that's how i play it too. Great tab, but instead of in the intro you dont just hit the E bar chord over and over again, you hit it once and then palm mute the open E for a bit. Sorry im not tabbing it out, but im not that good of a tabber, i'd probably get someone confused. Good tab though, 5 stars for effort. Looks like you figured it out on your own, fantastic. Peace.
+2   May 20 2007, 11:09 am by shellshock1911 |
begining is not open E powerchord over and over, listen to the album version, do you hear E powerchord on second octave over and over??

it is more like this

|------------------------------------------
|------------------------------------------
|------------------------------------------
|--9--------9-------9----------------------
|--7--------7-------7----------------------
|----0-0-0---0-0-0----0-0-0-0-0-0-0-0-0----
+3   July 20 2007, 11:42 pm by i bleed metal |
i hate you guys that are like, well this isnt how it is in the official sheet music...get your heads out of your asses, this dude did it by ear and its his interpretation, not a ****ing machine, and its still great
+2   December 3 2007, 03:02 pm by Sakattack75 |
intro is totally wrong open palm muted not power chords
+2   December 3 2007, 03:08 pm by Sakattack75 |
you were thinking of the diamond head version not the metallica version
December 3 2007, 08:36 pm by brett dixon |
nice, i f ucking love this song!! great tab
December 12 2007, 02:45 pm by we_built_a_tree |
dude you totally rock^^
+3   January 22 2008, 07:01 pm by JH_reincarnated |
is it
Am I evil?
yes I am.
Am I evil?
I am man, Yes i am.
instead of I am that?
+1   April 2 2008, 10:12 pm by goldenchopstick |
5 Star tab. Pretty easy solo if you tweak it up a bit ^^.
May 5 2008, 05:37 am by bazza391 |
i wish all tabs were this detailed lol, good on ya mate
+2   July 8 2008, 04:02 pm by synystagates |
definitely 5 stars, but, right after the intro solo. I think there natural harmonics not artificial?
-1   March 10 2009, 11:49 am by frantic_saint |
demonhunterrules, this song wasnt on garage inc. it was on kill em all.
-1   May 3 2009, 06:12 pm by ironmaidengirl3 |
I agree w/ synystagates and frantic saint
+3   August 17 2009, 02:03 pm by shredheadted |
frantic saint,you cant be serious, Garage Inc. is all cover songs done by Metallica over the years. Kill 'em All is Metallicas first album.
+1   August 17 2009, 02:05 pm by shredheadted |
oh, and good tab.
+1   September 12 2009, 01:14 am by ew94 |
shredheadted, the wanted to release the cover of Am I Evil on the firt pressing of Kill EM All, they had recorded and all, and just the same as Blitzkrieg, it wasn't put on the record, they were put on the RE-ISSUE when they signed with Elektra Records in '88.

And for the tab, sweet dude, awesome work
+1   September 22 2009, 09:38 pm by shredheadted |
I knew that, I was just testing you, and you passed :p
+1   April 1 2010, 07:50 pm by andrew10134 |
awsome tab but the intro is kind of rong and the main riff
April 3 2010, 02:24 pm by andrew10134 |
i think the solo goes more like this

| |||| | | ||| | | ||| | | || |
@ @@@@ @ @ @@@ @ @ @@@ @ @ @@ @
(Full) P
|-----------7--------------------------11-12--|
|-------------10-7-7/10^^^/12~~~----12--------|
|-9^^^^^^^^^----------------------------------|
|---------------------------------------------|
|---------------------------------------------|
|---------------------------------------------|

| | | | | | | | | | | |||| | ||||
@ @ @ @ @ @ @ @ @ @ @ @@@@ @ @@@@
H P H H P P P P
|-11-12-11---11-12-14-14-14-12-11-12-11----|---------------------|
|---------12----------------------------12-|-10~~~~----7/10~~~~~~|
|------------------------------------------|---------------------|
|------------------------------------------|---------------------|
|------------------------------------------|---------------------|
|------------------------------------------|---------------------|

| |||| | | | | | | | || | | ||||
@ @@@@ @ @ @ @ @ @ @ @@ @ @ @@@@
H P P P P P P
|-10-9--7--7-9-7-----7--------|------------------------------7----------------------|
|----------------10----10-7---|-10-7---7---------------------7--10-7---7------------|
|-----------------------------|------9---9-7-9-7---7---7—9^^---------9---9-7-7-9-7--|
|-----------------------------|------------------9--------------------------------9/|
|-----------------------------|-----------------------------------------------------|
|-----------------------------|-----------------------------------------------------|

| || | | | | | | | | || | | | | | | |
@ @@ @ @ @ @ @ @ @ @ @@ @ @ @ @ @ @ @
(Full) p (Full) p
|-----7-----------------------|-----7-----------------------|
|-----7-10-7---7--------------|-----7-10-7---7--------------|
|-9^^--------9---9-7-7------7-|-9^^--------9---9-7-7------7-|
|-----------------------------|-----------------------------|
|-----------------------------|-----------------------------|
|-----------------------------|-----------------------------|

| || | | | | | | | | | | | | | | | | |
@ @@ @ @ @ @ @ @ @ @ @ @ @ @ @ @ @ @ @
(Full) p
|-----7-----------------------|-/19--/20---/22---/24----------|
|-----7-10-7---7--------------|-------------------------------|
|-9^^--------9---9-7-7------7-|-------------------------------|
|-----------------------------|-------------------------------|
|-----------------------------|-------------------------------|
|-----------------------------|-------------------------------|

E5
| | | | | | | | | | | | | | | | | | | |
@ @ @ @ @ @ @ @ @ @ @ @ @ @ @ @ @ @ @ @
P P P P P P P P
|-15-14-12----12-14-15-14-12----12-14-|-15-14-12----12-14-15-14-12----12-14-|
|----------15----------------15-------|----------15----------------15-------|
|-------------------------------------|-------------------------------------|
|-------------------------------------|-------------------------------------|
|-------------------------------------|-------------------------------------|
|-------------------------------------|-------------------------------------|

| | | | | | | | | | | | | | | | | | | |
@ @ @ @ @ @ @ @ @ @ @ @ @ @ @ @ @ @ @ @

|-15---14---12--------12---------|--------------------------------|
|----------------15--------15----|-14---12---14-------------------|
|--------------------------------|----------------12======--------|
|--------------------------------|--------------------------------|
|--------------------------------|--------------------------------|
|--------------------------------|--------------------------------|

B5
| | | | | | | | | | | | | | | | | | | |
@ @ @ @ @ @ @ @ @ @ @ @ @ @ @ @ @ @ @ @
(Full) P P P P P P P
|------10-7-7-9—7-7-10-7-7-|-12-7-7-10-7-7-9-7-7-10-0-0-|
|----7---------------------|----------------------------|
|-9^^----------------------|----------------------------|
|--------------------------|----------------------------|
|--------------------------|----------------------------|
|--------------------------|----------------------------|

| | | | | | | | | | | | | | | | | | | |
@ @ @ @ @ @ @ @ @ @ @ @ @ @ @ @ @ @ @ @

|-10---9---7--------7---------|----------------------------|
|--------------10-------10----|-9---7---9------------------|
|-----------------------------|-------------7======\-------|
|-----------------------------|----------------------------|
|-----------------------------|----------------------------|
|-----------------------------|----------------------------|

| |||| | ||
April 3 2010, 02:26 pm by andrew10134 |
and then

| |||| | |||| | |||| | |||| | |||| | |||| | |||| | ||||
@ @@@@ @ @@@@ @ @@@@ @ @@@@ @ @@@@ @ @@@@ @ @@@@ @ @@@@
HH HH HH HH HH HH HH HH HH HH HH HH HH HH HH HH
|-----------------|-----------------|-----------------|-047-047-047-047-|
|-047-047-047-047-|-058-058-058-058-|-047-047-047-047-|-----------------|
|-----------------|-----------------|-----------------|-----------------|
|-----------------|-----------------|-----------------|-----------------|
|-----------------|-----------------|-----------------|-----------------|
|-----------------|-----------------|-----------------|-----------------|

A5
| |||| | |||| | |||| | |||| | |||| | ||||
@ @@@@ @ @@@@ @ @@@@ @ @@@@ @ @@@@ @ @@@@
HH HH HH HH HH HH HH HH T PP T PP T PP T PP
|-058-058-058-058-|-047-047-047-047-|-1285-1285-1285-1285-|
|-----------------|-----------------|---------------------|
|-----------------|-----------------|*-------------------*|
|-----------------|-----------------|---------------------|
|-----------------|-----------------|*-------------------*|
|-----------------|-----------------|---------------------|

F5 A#5 F#5
| |||| | |||| | |||| | |||| | |||| | ||||
@ @@@@ @ @@@@ @ @@@@ @ @@@@ @ @@@@ @ @@@@
T PP T PP T PP T PP T PP T PP T PP T PP T PP T PP T PP T PP
|-1385-1385-1385-1385-|-1396-1396-1396-1396-|-1496-1496-1496-1496-|
|---------------------|---------------------|---------------------|
|*-------------------*|*-------------------*|*-------------------*|
|---------------------|---------------------|--------------------*|
|*-------------------*|*-------------------*|*--------------------|
|---------------------|---------------------|---------------------|

B5
| || | | | || | | | |||| | |||| | |||| | ||||
@ @@ @ @ @ @@ @ @ @ @@@@ @ @@@@ @ @@@@ @ @@@@
T P P T P P T P P T P P HH HH HH HH HH HH HH HH
|-14107-14107-14107-14107-|-047-----047-----|-047-----047-----|
|-------------------------|-----047-----047-|-----047-----047-|
|*-----------------------*|-----------------|-----------------|
|-------------------------|-----------------|-----------------|
|*-----------------------*|-----------------|-----------------|
|-------------------------|-----------------|-----------------|

| |||| | |||| | |||| | |||| | |||| | |||| | |||| | ||||
@ @@@@ @ @@@@ @ @@@@ @ @@@@ @ @@@@ @ @@@@ @ @@@@ @ @@@@
HH HH HH HH HH HH HH HH HH HH HH HH HH HH HH HH
|-----------------|-----------------|-----------------|-----------------|
|-047-----047-----|-047-----047-----|-----------------|-----------------|
|-----047-----047-|-----047-----047-|-047-----047-----|-047-----047-----|
|-----------------|-----------------|-----047-----047-|-----047-----047-|
|-----------------|-----------------|-----------------|-----------------|
|-----------------|-----------------|-----------------|-----------------|

E5
| |||| | |||| | |||| | |||| | | | | | | | | | |
@ @@@@ @ @@@@ @ @@@@ @ @@@@ @ @ @ @ @ @ @ @ @ @
HH HH HH HH P P P P P P P P
|-----------------|-------------------|-------------------------------------|
|-----------------|----------------12-|-1514-12--1715-12--1514-12--1715-12--|
|-----------------|-------------/14---|-------------------------------------|
|-047-----047-----|-------------------|-------------------------------------|
|-----047-----047-|-------------------|-------------------------------------|
|-----------------|^12^---------------|-------------------------------------|

| | | | | | | | | | | | | | | | ||| |
@ @ @ @ @ @ @ @ @ @ @ @ @ @ @ @ @@@ @
P P P P P P P P
|-------------------------------------|--------------------------------------|
|-1514-12--1715-12--1514-12--1715-12--|-1514-12-1412-12-1210-12-109-12-97-12-|
|-------------------------------------|--------------------------------------|
|-------------------------------------|--------------------------------------|
|-------------------------------------|--------------------------------------|
|-------------------------------------|--------------------------------------|

B5
| |||| | |||| | |||| | || || | |||| | ||||
@ @@@@ @ @@@@ @ @@@@ @ @@ @@ @ @@@@ @ @@@@
(Full) P (Full)
|-------------------|----------------------|------------10^====|
|-7-----------------|-10^------107---7-----|-------------------|
|-7-9-7---7---------|--------------9---9-7-|-9-7---7-----------|
|-------------------|----------------------|-----9-------------|
|-------------------|----------------------|
April 3 2010, 02:27 pm by andrew10134 |
| || || | || | | | || | | | | | | |
@ @@ @@ @ @@ @ @ @ @@ @ @ @ @ @ @ @
H P H P H P H P ~~~~~~~~
|-9----12-------------------|--------------------------|
|-----------10-12-10-8-10-8-|-7-8-7-5-6-5--3========---|
|---------------------------|--------------------------|
|---------------------------|--------------------------|
|---------------------------|--------------------------|
|---------------------------|--------------------------|
April 3 2010, 02:30 pm by andrew10134 |
this should be

|------------------|----------------------|----------|
|------------------|----------------------|----------|
|------------------|---------------------*|----------|
|-----9---7-7------|-7-7------------------|-7--------|
|-----7---5-5------|-5-5---------5-7-5---*|-5---7----|
|-0-0--------------|---------5-7-------7--|-----5----|

|------------------|----------------------|----------|
|------------------|----------------------|----------|
|------------------|---------------------*|----------|
|-----9---7-7------|-7-7------------------|-7--------|
|-----7---5-5------|-5-5-----------0-5-7-*|-5---7----|
|-0-0----------0---|-------0-0-5-7--------|-----5----|
-2   June 11 2010, 08:04 am by Nukaateq |
this is the ****ing DIAMOND HEAD VERSION!!!!! not the METALLICA VERSION you ****!!!

You are all blinded ****s!!!! hear the diamond version and metallica version and you will hear the difference!!!!!!! ****ing dontknowaboutthedifference
-3   June 11 2010, 08:07 am by Nukaateq |
i give it 1 star cuzz it's ****ing!! diamond version!! not the metallica version!!!

But the song is kick-assing awesome!!!!!!!
+2   July 1 2010, 12:16 pm by y&t ozzy |
look diamond head wrote this not metallica(laugh)
dont care if this is their version
+1   April 21 2011, 10:06 pm by alcaholica |
On pre-chorus riff try |--------------------------------|
|--------------------------------|
|--------------------------------|
|--------7-----9---------10-9----|
|9-9-9-9-5-9-9-7-9-9-9---8--7----|
|7-7-7-7---7-7---7-7-7-----------|
Awesome.
August 18 2012, 01:23 pm by mcGreen |
the intro harmonics are
 HH  HH  HH  HH  HH  HH  HH  HH    HH  HH  HH  HH  HH  HH  HH  HH
|---------------------------------|---------------------------------|
|-058-058-058-058-058-058-058-058-|-047-047-047-047-047-047-047-047-|
|---------------------------------|---------------------------------|
|---------------------------------|---------------------------------|
|---------------------------------|---------------------------------|
|---------------------------------|---------------------------------|

(Hold last note..)
HH HH HH HH HH HH HH HH HH HH HH HH HH HH HH
|-----------------------------------|---------------------------------|
|-057-057-057-057-0710-0710-058-058-|-047-047-047-047-047-047-047-----|
|-----------------------------------|---------------------------------|
|-----------------------------------|---------------------------------|
|-----------------------------------|---------------------------------|
|-----------------------------------|---------------------------------|
May 5 2013, 04:12 pm by Resurrected96 |
That's good, thanks.
Please select
Post your    Comment OR Correction :

NOTE: If you want to post a tab,
please use [tab] [/tab] tag to do this.
© 2014 Ultimate-Guitar.com or its affiliates. All rights reserved     About | Help | Site Map | Link To Us | TOS | Privacy Policy | Advertise | Contact