by Silent Sanctuary tabs | tabbed by Unregistered
1 2 3 4 5
2 votes
print
View: All Comments Corrections
December 10 2009, 06:12 am by Jelbert |
yun pong F#m dapat po ganito yan =)

|e|------2------------------|
|B|-------2-----------------|
|G|--------2----------------|
|D|------2--------4---------|
|A|-----2----------4--------|
|E|------2------------------|

Sorry Po v^_^
November 1 2010, 09:16 pm by Don123_20 |
ta3 mali nmn laat eh !!
February 18 2011, 05:58 am by ChronoBlitz024 |
Song : Hiling
Artist : Silent Sanctuary
Album : Mistaken For Granted
Tabbed by: JmCe024/ JM Sosito
Text me : 09229663614
Email me : jmce024@yahoo.com/chrono_blitz_024@yahoo.com

Chords used:
A G#m F#m E B5 A5 F#sus G#m7
e|------0----0----0---0---0---0----0------0--
B|------0----0----0---0---0---0----2------0--
G|------5----4----2---1---4---2----4------4--
D|------7----6----4---2---4---2----4------4--
A|------7----6----4---2---2---0----4-----x/0-
E|-----x/0--x/0--x/0--0---0---0---x/0-----4--

-----#you could either use B5 or Bm#------

Guitar Verse I (plucking/picking):
A or A5 F#sus-F#m
e|------0----0---0-----------------0---0---0------------
B|-----0------0----0--------------2-----0---0-----------
G|----2----2---2------rep x2 ----4---2---2-----repx2----
D|---2--------------------------4-----------------------
A|--0--------------------------4------------------------
E|------------------------------------------------------

Verse I:
A F#sus-F#m F#sus-F#m
Minsan di ko maiwasang isipin ka,
A F#sus-F#m F#sus-F#m
Lalo na sa tuwing nag-iisa,
A [ F#sus-F#m(x2)]
Ano na kayang balita sa iyo?
A [ F#sus-F#m(x2)]
Iniisip mo rin kaya ako?
A [ F#sus-F#m(x2)]
Simula nang ika'y mawala,
A [ F#sus-F#m(x2)]
wala nang dahilan para lumuha
A [ F#sus-F#m(x2)]
Damdaming pilit ko nang tinatago
A [ F#sus-F#m(x2)]
Hinahanap ka parin ng aking puso

Pre-Chorus I:
B5 A5 E
Parang kulang nga
B5 A5 E (HOLD)
Kapag ika'y wala

Chorus:
A G#m7 F#m E
At hihiling sa mga bituin, Na minsan pa sana ako'y iyong mahalin

A G#m7 F#m E
Hihiling kahit dumilim, Ang aking daan na tatahakin

A5 E
patungo

Verse II:(two strikes in F#sus-F#m)
A F#sus-F#m-F#sus-F#m
Alaala mong tinangay na ng hangin,
(rep chords)
Sa langit ko na lamang ba yayakapin

Pre-Chors II:(rep pre-chorus I chords)

Nasaan ka na kaya?
Aasa ba sa wala?

Chorus II:

A G#m7 F#m E
At hihiling sa mga bituin, Na minsan pa sana ako'y iyong mahalin

A G#m7 F#m E
Hihiling kahit dumilim, Ang aking daan na tatahakin

A5 E
patungo
A G#m7
sa iyo
A5 E
patungo
A F#m
sa iyo

Instrumental:

Guitar:

[A5-E, F#m-G#m, A(x4)]

Cello:
A5 E F#m G#m A A A A(...)
e|------------0--------------2---0------------------------------------------------------------|repx4
B|---------------------------------------0h2-2-2-2--0h2-2-2-2--0h2-2-2-2--0h2-2-2-2-----------|epx4
G|---0--2--4----------0--2--------------------------------------------------------------------|px4
D|--------------------------------------------------------------------------------------------|x4
A|--------------------------------------------------------------------------------------------|4
E|--------------------------------------------------------------------------------------------|

Violin:
*before cello part*

e|---12-14-12s10--10s7--7h9-9-|
B|----------------------------|
G|----------------------------|
D|----------------------------|
A|----------------------------|
E|----------------------------|
A5 E F#m G#m A A A A(...)
e|---------12-------14-12--16s17-17-17-17--16s17-17-17-17--16s17-17-17-17--16s17-17-17-17---|
B|-9-10--12---9--10-------------------------------------------------------------------------|
G|------------------------------------------------------------------------------------------|repeat x2
D|------------------------------------------------------------------------------------------|
A|------------------------------------------------------------------------------------------|
E|------------------------------------------------------------------------------------------|

e|--18--16------18--16-----18--16-----18--16----20--18---20--18----20--18---20--18---|
B|---------16----------16---------16--------16--------18--------18-------18--------18|

*continue*

e|--16s17-17-17-17--16s17-17-17-17--16s17-17-17-17--16s17-17-17-17-|
B|-----------------------------------------------------------------|

then so on and so fort... hindi na kasi abot ng guitar ung ssunod na mga part kea hindi ko na ilalagay

Bridge:
F#sus E F#m
Ipipikit ko ang aking mga mata
A F#m
Dahil nais ka lamang mahagkan
A E
Nais ka lamang masilayan
A5 G#m7
Dahil alam kong tapos na
A5
Dahil alam kong
F#m E
wala ka na
(break)
(rep chorus except ending)
A5 E F#m
patungo sa iyo
A E
patungo
A5(strum gently)
sa'yo

_-=*END*=-_

yan tab ko ndi matanggap eehh
Please select
Post your    Comment OR Correction :

NOTE: If you want to post a tab,
please use [tab] [/tab] tag to do this.
© 2014 Ultimate-Guitar.com or its affiliates. All rights reserved     About | Help | Site Map | Link To Us | TOS | Privacy Policy | Advertise | Contact