by Randy Houser tabs | tabbed by DKBushee
1 2 3 4 5
3 votes
print
View: All Comments Corrections
July 8 2013, 10:28 am by supermanspixie |
will you please tab out the guitar part at about 2 minutes into the song. its the part i call the dixie horn section i guess it would technically be the solo of the song. i can't find it anywhere tabbed out and it would be greatly appreciated if someone out tab it out for me. thanks :)
October 18 2013, 07:08 am by digitaldave |
Tabbed by: Digitaldave

Here is the solo part if you want to call it that...

Tuning:Drop Eb

Eb|--------------------------------------------|
Bb|--------------------------------------------| Part I
Gb|-------------------------4h5----77--7-------|
Db|-------------55---5h7-----------------3v~~--|
Ab|--------------------------------------------|
Db|--------------------------------------------|

Eb|--------------------------------------------|
Bb|--------------------------------------------|
Gb|-------------------------0h22---2-----------| Part II
Db|------------00----0h2h4--------------4v~~---|
Ab|--------------------------------------------|
Db|--------------------------------------------|
Part III
Eb|------------------------------------------------------------------|
Bb|-------------------------4h5--------77---7------------------------|
Gb|------------55-----5h7------------------------3-----5---6--7------|
Db|----------------------------------------------3-----5---6--7------|
Ab|----------------------------------------------0-----3---4--5------|
Db|------------------------------------------------------------------|
October 18 2013, 07:12 am by digitaldave |
Part III(correction)
Eb|---------------------------------------------------------------|
Bb|---------------------------------------------------------------|
Gb|--------------------------4h5------77---7-------3---5---6--7---|
Db|------------55------5h7-------------------------3---5---6--7---|
Ab|------------------------------------------------0---3---4--5---|
Db|---------------------------------------------------------------|
October 18 2013, 07:15 am by digitaldave |
Eb|--------------------------------------------|
Bb|--------------------------------------------|
Gb|-------------------------0h22---2-----------| Part II
Db|------------00----0h2h4--------------3v~~---|
Ab|--------------------------------------------|
Db|--------------------------------------------|

Damn messed up again here is the right way for part II
Please select
Post your    Comment OR Correction :

NOTE: If you want to post a tab,
please use [tab] [/tab] tag to do this.
© 2014 Ultimate-Guitar.com or its affiliates. All rights reserved     About | Help | Site Map | Link To Us | TOS | Privacy Policy | Advertise | Contact