by Set Your Goals tabs | tabbed by rockett97
1 2 3 4 5
10 votes
print
View: All Comments Corrections
February 22 2010, 05:24 pm by Sparticus55667 |
MORE!!!!!!!!
May 24 2010, 11:30 pm by cobra_disco |
its half step down, not drop c#
May 25 2010, 04:32 pm by rockett97 |
@ cobra_disco:
I like to play it in Drop C# rather than in just a half step down. That way i can play the powerchords on the lower three strings better (cause i'm used to playing in drop D/Drop C#).
It could be SYG plays it in half step down, but this is just the way i find it better (sounds better imo.)

But anyways if you want to play it in half step down, just do what you like! Only the 'number' on the lowe C# string changes, the rest of the tab stays the same (but i'm sure you're aware of that)
August 19 2011, 03:19 pm by VintageBassline |
Great tab, only thing I'd say is that I find it easier to play this:
d#|--------------------------------------------------------------------|
A#|--------------------------------------------------------------------|
F#|-4-6-6-6-9-9-6-6-4-4-9-9------------6-6-6-9-9-6-6-----9-9-----------|
C#|-4-6-6-6-9-9-6-6-4-4-9-9-7-9-9-9-9--6-6-6-9-9-6-6-7-7-9-9-7-9-9-9-9-|
G#|-2-4-4-4-7-7-4-4-2-2-7-7-7-9-9-9-9--4-4-4-7-7-4-4-7-7-7-7-7-9-9-9-9-|
C#|-------------------------7-9-9-9-9----------------7-7-----7-9-9-9-9-|

d#|--------------------------------------------------------------------|
A#|--------------------------------------------------------------------|
F#|-4-6-6-6-9-9-6-6-----9-9------------6-6-6-9-9-6-6-----9-9-----------|
C#|-4-6-6-6-9-9-6-6-9-9-9-9-7-9-9-9-9--6-6-6-9-9-6-6-7-7-9-9-7-9-9-9-9-|
G#|-2-4-4-4-7-7-4-4-9-9-7-7-7-9-9-9-9--4-4-4-7-7-4-4-7-7-7-7-7-9-9-9-9-|
C#|-----------------9-9-----7-9-9-9-9----------------7-7-----7-9-9-9-9-|

Just as ease of playing thing, exact same note.
Please select
Post your    Comment OR Correction :

NOTE: If you want to post a tab,
please use [tab] [/tab] tag to do this.
© 2014 Ultimate-Guitar.com or its affiliates. All rights reserved     About | Help | Site Map | Link To Us | TOS | Privacy Policy | Advertise | Contact