by Led Zeppelin tabs | tabbed by Unregistered
1 2 3 4 5
6931 votes
print
View: All Comments Corrections Best Voted Corrections
+238   November 27 2001, 12:00 am by BassDude1 |
This is amazing. I can't believe anyone would take so much time to make such an extensive tab!
+190   December 18 2001, 12:00 am by alleyoops27 |
Very VERY awesome!!
+222   January 16 2002, 12:00 am by thingamajig |
did you know that it takes 13 pages to print this out?
+128   February 15 2002, 12:00 am by isthatmycow |
sweet tab
+132   February 15 2002, 12:00 am by eeyore110 |
This tab is printed out of Guitar-World magazine. I have the issue. So all of you idiots who reated it as a 4 , ITS THE RIGHT VERSION!
+114   February 16 2002, 12:00 am by Doak |
This tab is excellent! Party On
+107   February 22 2002, 12:00 am by Blink 41 |
Even if he copied it out of something it still had to take a while, good job on the tab.
+132   February 23 2002, 12:00 am by I forget |
I bet my friend 20 bucks i could learn to play this off by heart in two weeks. i revised it like a student on crack....still couldnt play it all the way through.

20 bucks poorer and with a headache.

Great tab by the way
+73   February 27 2002, 12:00 am by moyersjr |
good tab
-137   March 4 2002, 12:00 am by physek |
If you look at every tab, more then 75% of the tabs are copied and pasted by Zap. So don't feal bad.
-130   March 9 2002, 12:00 am by Guitarman742 |
who gives a fuck where the god damn tab came from if it is right then just shut up and play man any other true musician would say the same i mean areal dedicated musician who dosen't worry about fucken tabs and just plays and plays good such as myself
+71   March 10 2002, 12:00 am by evilcarebear1 |
this tab is fucking awsome... im just some loser chick and even i know that...
+58   March 11 2002, 12:00 am by playitloud |
Christ how long did it take you to tab this????? great tab tho! all the others don't even come close! great job
+101   March 20 2002, 12:00 am by Tessa |
Um, you are criticising him for not spelling Zeppelin right, and you just spelt it "Zepplin" You retard. GREAT TAB MAN. THANKS. DON'T LISTEN TO THE NEGATIVE COMMENTS BECAUSE I LOOKED IN A GUITAR BOOK AND THE FIRST PART IS DEAD ON. [THUMBSUP]
+47   March 23 2002, 12:00 am by Stephen Baxley |
I'd have to agree, the guy didn't even know how to spell "Zeppelin" right at all, yet he was criticizing for the mispelling. Dumbhead! Anyway, Great Tab! Right on target!
+37   March 25 2002, 12:00 am by kid_28 |
sic tab man led zep rule!!!
+19   March 26 2002, 12:00 am by DisturbedVoices |
The Tab Totally Rocks and Ibanez Rules......... And Come On Take Your Time Writing The Tabs And Spell The Name Wrong Come On Get It Together...... Great Tabs!
+36   March 27 2002, 12:00 am by PATRICK |
WHATS THE BIG FKN DEAL? STOLEN, NOT STOLEN, NOONE SHOULD CARE, HE TOOK THE TIME TO POST IT, HIS OR NOT, AND IT HELPED YOU BSTRDS. QUIT CRYING, IT WAS AWESOME AND RIGHT ON THE $$$ - Trik
+26   March 28 2002, 12:00 am by IkickA$$ |
great tab
hard song to play though
+22   March 29 2002, 12:00 am by GoatWoman |
That took 21b pages to print. you are a tab god, and this tab sounds awsome. thank you for taking all that time!
+29   March 29 2002, 12:00 am by Memphis J |
Cheers man, i agree, Who the fuck cares where a tab comes from? If it`s there and it`s correct, thats good enough 4 me! thanks man!
+20   March 31 2002, 12:00 am by rageagianstme |
You are a god and should make many more tabs
+18   March 31 2002, 12:00 am by taity |
That is one good tab!
+20   April 1 2002, 12:00 am by cecka |
Excellent tab!!! You deserve a good pat on the back for all that effort you put into this. IT must have taken an eternity to post it. Thanks man!
+19   April 2 2002, 12:00 am by Galactabeast |
the tab rocks ass man. that must have taken all day to write
-75   April 3 2002, 12:00 am by Nicky_c77 |
Pls anybody knows Sick Again Tab?Thanx
+15   April 8 2002, 12:00 am by Taz141 |
This tab is awsome
+15   April 9 2002, 12:00 am by ZoSo09 |
great tab
led zeppelin rules ass
keep rockin
+15   April 9 2002, 12:00 am by j.c.garding |
dude, very very nice this tab fucking kicks ass!
+13   April 12 2002, 12:00 am by wood162001 |
Dude I fucking slute because I have been trying to learn this song for ever and finally thanks to you I know now how to play. And really who gives a fuck if he pasted it or copied or whatever its their so shut the fuck up about it.
+11   April 13 2002, 12:00 am by shalloys |
is it just me or is there a bar missing from the middle of the intro?
+32   April 13 2002, 12:00 am by shalloys |
im not sure but im guessing the missing bar is
e--3p2-2-2
G---------
B---------
D--0-----0
+14   April 13 2002, 12:00 am by shalloys |
Im not sure about those open d strings but they sound like they go and
will be easy to get away with.
+9   April 13 2002, 12:00 am by shalloys |
oh i see the other bit at the bottom has it oh well i was close :)
+14   April 14 2002, 12:00 am by Santanalova |
WOW! This is such a great tab. Probly copied... but who the hell cares neway?!?!? Its right and it does sound good.
-115   April 14 2002, 12:00 am by area51234 |
YEAH! METALLICAFREAK RULES!
HE HAS ABSOLUTLY RIGHT!
ALL YOU OTHER PEOPLE SUCK!
+12   April 15 2002, 12:00 am by rogerdking |
awesome tab!
+11   April 15 2002, 12:00 am by Henman |
Great tab ~ Great song @_@
+22   April 16 2002, 12:00 am by woodyhippie |
er, if you think this song/band sucks... why are you looking at the tab?
I love the song, love the tab, love everyone... :-D
+7   April 16 2002, 12:00 am by metal_massacre |
put 'em all together, and you've got a bad ass song
+7   April 18 2002, 12:00 am by 4string_assasin |
sick tab man our band needed to play this at a pub and i couldnt find a 1/2 decent tab anywhere thanks heaps
-83   April 20 2002, 12:00 am by VaYnE |
hmm,these are good tabs,anyways the end of the intro there is a easier way to play it.....
e|---------| e|---------|
B|---------| B|-0-1-1---|
G|-0-2-2---| G|-0-2-2---|
D|---------| D|---------|
A|-2-0-0---| A|-2-0-0---|
E|---------| E|---------|
^easier way. ^the way the guy posted it
+8   April 21 2002, 12:00 am by xxkittiechickxx |
All i have to say is wow. This guy can put a tab together. I worship you.
+8   April 23 2002, 12:00 am by godofblue0712 |
this is an awesome tab. this is also the most comments i have ever seen!!!
+8   April 24 2002, 12:00 am by pinkfloydude |
all i have to say is this awesome tab is correct 100%
+7   April 24 2002, 12:00 am by unforgivenM |
F*CKING great tab altogh it's difficult ot play but i like it very much my mother likes it too very great song very great tab ..:D
+9   April 26 2002, 12:00 am by Chinkonator |
Every guitar player has to learn this song to be called a guitar player. It is the best song in the world to play on the guitar and this guy did justice to this song by tabbing it perfectly. Who cares if you didnt spell his name right at least you did the tab correctly.
+4   April 28 2002, 12:00 am by Perhaps |
this is a kick ass tab... led zeppelin all the way
+3   April 28 2002, 12:00 am by fikret |
very very good
+2   April 29 2002, 12:00 am by LolasMan |
Sweet tab man. all the others suck. the guys dis'n you are all fags. even is you did get the song out of a book its cool that you took the time to post it.
+2   April 29 2002, 12:00 am by Snoopy |
this is the best fuckin song ever. led zep rule!!!!!! long live rock'n'roll
.
+1   May 1 2002, 12:00 am by 4string_assasin |
Cause were trying to give this guy a wrap cause this is the sickest tab ive seen and this is the best song in the world...
-73   May 4 2002, 12:00 am by cool_taz |
Ive seen alot of tabs for this song.All of them wrong or some so off i didnt even think they were listning to the same song.Oh yeah im Ozzy Osborne.I finally picked up th guitar agin.If you dont belive im him well shove it you bloddy mewhore and womenwhore
May 6 2002, 12:00 am by the jap |
yeah zappp is a good tab maker but some times he sucks and all of you suck balls! gibson les pauls rock!
+12   May 6 2002, 12:00 am by the jap |
you are so stupid if you were ozzy osbourne then you would know how to spell your own name dumbass
+1   May 7 2002, 12:00 am by ABRAXAS |
How in god's name did you figure this out? You ROCK!!!
+1   May 8 2002, 12:00 am by Tankian2002 |
god this is great. thank you for tabbing it i didnt know some parts but now...thank you. led zeppelin does rule!
-17   May 9 2002, 12:00 am by pAtRiCiA |
OH MY GOD!!!! THIS TAB ROCKS I AM SHOCKED! IT DOES SEEM 100% RIGHT BUT IM STILL WONDERING HOW YOU GOT IT??????
+7   May 10 2002, 12:00 am by necro |
i wish all tabs were as good as this one. don't know if he got it from a book, and don't care either. still spent the time into it.
+9   May 16 2002, 12:00 am by RageAgainstPop |
Who the fuck wrote that Led Zeppelin is shit? What a terrible thing to write! Die by my hand! I sure as hell hope you don't like any kind of rock, because if you do, you just disrespected perhaps the greatest rock band in history. Music today sucks. It's terrible.
+5   May 18 2002, 12:00 am by IAmHandMadeGod |
i know there are enough comments here alredy but I just wanted to say well done... my guitar teacher taught me this song, but only like half of it. where the chords start at:
e|---|
b|-3-|
g|-0-|
d|-0-|
a|-2-|
e|---| is where i learnt up to, and the parts that are in here are like almost exactly the same as i learnt.
they might be like 3 nots out at maximum, but this tab does rock :) lol..
..i want to know who zapp is, cos he's posted like most of the tabs on here, and i was wondering if he was the site owner *shrugs*.. c ya people :)
-26   May 18 2002, 12:00 am by JuneB10 |
Well, I'm assuming since about a gazillion people swear they know you copied this that you did, but thanks man. I like free stuff that is exactly right! Thanks a million!
+9   May 28 2002, 12:00 am by Zakk Wylde |
holy shit this is amazing
-88   June 1 2002, 12:00 am by fer_offspring |
this tab is completely wrong
-56   June 16 2002, 12:00 am by seiana682 |
hi
+4   June 17 2002, 12:00 am by azn_cupid2002 |
great tab
+11   July 3 2002, 12:00 am by Iron Maidon |
Who gives a shit if he spells Zeppelin wrong. I have been playing my guitar for years, and this is an amazing tab so fuck off.
+2   July 12 2002, 12:00 am by SquierPlayer |
this is a really good tab but this song is done fingerstyle to let you know but this still sounds really good
+3   July 16 2002, 12:00 am by 4string_assasin |
the intro to this song is played best if you have your hands in position at the start and let the notes ring out a bit it gives it a sweet effect.
ie. the first part of the intro bar the first fret with your first finger and then on the 2nd part.
then on the next one make a D-Chord shapeand the put your little finger on the 4th fret of the D string and on the last bit put your 1st finger on 1st fret of the B-string and ya 2nd on 2nd fret of the G_string
+3   August 26 2002, 12:00 am by Mc Lethal |
lets all give him 2 bucks for doing such a good job and maybe he'll do more kick ass tabs for 1 buck from each of us because he'll be so damn rich, well thats my two bits, by the way, anyone who even makes an effort to practice their guitar every day, rules, no matter how crappy it is, later guitar dudes!
+5   September 2 2002, 12:00 am by raider_22 |
Screw you Mc Lethal, u pay him 2 bucks. By the the way good tab.
-34   September 17 2002, 12:00 am by Warm_Machine |
The tab starts out with the following chord formations

Am(bar Chord) C/G C#/Gb d/eb(not a bar chord)

what you have wrong is on the D, you are supposed to hold down the D string at the fourth fret
+5   November 17 2002, 12:00 am by ChRiS_13 |
Nice tab man but if im not mistaken i know its 'LED ZEPPELIN' not ZEPPELING
November 19 2002, 12:00 am by Aznsuperman |
yea..led zeppeling that's pretty disgraceful. Anyways..the intro stuff is all barre chords. and then it goes
022
200
its easier that way.
+2   November 19 2002, 12:00 am by Aznsuperman |
sorry didnt write strings. its 2 and 3 and then the 5th string. He has it
011
022
---
200

the way i showd is easier..up there..but i didnt do strings..same strings as his way..
-13   November 19 2002, 12:00 am by Aznsuperman |
wow i wish there was an erase button ;[ sorry..i'll correct myself..AGAIN..

B 200
G ---
D 022

there..now its more clear..
-85   December 21 2002, 12:00 am by revolver |
i dont think this tab could be any more wrong, it sux
-21   December 25 2002, 12:00 am by American Badass |
|------------------------|
|-0-1-1------------------|
|-0-2-2------------------|
|------------------------|
|-2-0-0---0---2/8-7------|
|------------------------|
^
2nd finger, 2nd freat, and a quick slide down to the 8th freat and back to the 7th freat. After you pluck the three strings play the A string open then like a quick hammer but still hit the A string and then slide down to the 8th freat.
+5   December 26 2002, 12:00 am by mR*mind |
hi all, just thought that i'd let you
know that he never said he made it up himself, all he did was post up a really
good tab that a lot of people wanted
that is really hard to play. Even if he
can't spell Led Zeppelini...

Oh yeah, Zayne, its true, you are gay.

Cheers to the alcaholic he made me laugh
till i cried.
-12   December 27 2002, 12:00 am by Zack Attaran |
sweet tab, ive never seen these many comments
+5   December 30 2002, 12:00 am by deansouthpaw |
Led Zeppelin is one of the greatest bands ever and most people are just copying them nowadays. This song could possibly be one of the best songs in rock history so DON'T HATE ON THE LED! and whoever was talking about creed can shut up because they're a great band who knows what they're doing.

Great Tab. Easy to read, fun to learn.
-18   January 3 2003, 12:00 am by johno182 |
uh the part were he sez it makes me wonder is wrong ive got the official tab book and this is how it goes



-3--3-3-3---3---3|3--2----2---2-2-------
-1--1-1-1---1---3|3--3----3---3-3--0----
-0--0-0-0---0---0|0--2----2---2-2--0----
-2--2-2-2---2---2|2--0--0----------0----
-0---------------|0--0--0----------0----
-----------------|----------------------
just play around with it and therez another little bit after that but me lazy

other than that that tab is pretty good a couple of little things but its fine
+2   January 6 2003, 12:00 am by GuitarChik66 |
....WHO CARES IF HE COPIED THIS FROM THE BOOK OR NOT..... AS LONG AS ITS RIGHT IT DOESNT REALLY MATTER.....
+3   January 6 2003, 12:00 am by GuitarChik66 |
PS looks good to me
-6   January 8 2003, 12:00 am by stevo002 |
decent tab missing a few details but over all you've got it tabbed
+2   January 9 2003, 12:00 am by I_hate_CREED |
dude he explains what walloping like he
coppied it from the guitar world issue.
I hate creed by the way
+2   January 13 2003, 12:00 am by theguitarking |
nice, mate, very nice
+2   January 20 2003, 12:00 am by sssnarik |
the reason this appears to be so brilliant is cause the writer stole it directly from a book called led zepplin's greatest hits:TABS. well anyway this atleast is cheaper than buying it.the book is like $35!!!
+2   February 2 2003, 12:00 am by WeezerKid625 |
Who cares if it's copied. It kicks major arse.
February 25 2003, 12:00 am by wezfan316 |
this is a beast of tab i am glad its is out of a mag at least its the right verion
-9   March 8 2003, 12:00 am by uracompletetool |
this tab is awsome. It'll take me a while to learn it though.

And Zeppeling is wrong. So is Zepplin.
+1   March 9 2003, 12:00 am by devils_halo |
nice tab dude, nuff said
-4   March 13 2003, 12:00 am by scoochiefoo |
DAAAAAAAAMMMMMMMMMNNNNNNNN.....thats all i gotta say
-5   March 14 2003, 12:00 am by rhcp_guitarist |
oh my f*cking god....crazy man....just friggin crazy
-16   March 20 2003, 12:00 am by DoubleDosage |
3-2-2-2-
3---3-3-
2---2-2-
--------
--------
--------
-30   March 21 2003, 12:00 am by warlock_182 |
dude go make a better one then you can really show us your stuff
-7   April 4 2003, 12:00 am by Canada2006 |
good job on the tab man, i dont care it must of taken a while to get it out of the book anyway, but part of its wrong, after he says, oooh it makes me wonder, the chords 5-7-7, 3-5-5, and 5-7-7, should be instead as follows: 7-8-9, 2-3-4, 0-1-0, 2-3-2 good job :)
+2   April 10 2003, 12:00 am by othisfeelsgood |
this to the kid that said stop the war.
i now war is rong but stop fuking ragin on bush. hes savin are country.GOOD LUCK TO ALL THE MEN AND WEMAN RISKING THERE LIFE FOR ARE COUNTRY RIGHT NOW.
-10   April 12 2003, 12:00 am by GretschJetII |
wezfan, in case u didnt know, WE NEED THE OIL!!!
-16   April 12 2003, 12:00 am by Neptune |
wezfan are the type of people who say 'peace...lets have peace..peacepeacepeace'.

So we have peace until terrorists blow up our homes..but what's that i hear...yes...the bloody pacifists are still saying 'peace peace'

Idiots.
-6   April 12 2003, 12:00 am by humanoid typhoo |
i like this song
-7   April 14 2003, 12:00 am by akrilicskater21 |
Why is this tab a 4? an not a 5?
+1   November 27 2003, 12:00 am by CtrlAltDel |
^ Exactly! This tab is amazing, regardless of who tabbed it.
-11   April 26 2003, 12:00 am by wezfan316 |
beacause sum pu*fs rated it four edget
+1   April 26 2003, 12:00 am by wezfan316 |
neptune youre a wan8 i was only messin on blow them up nick there oil
+2   May 24 2003, 12:00 am by sargasm |
it seems like the third line is missing a peice but im just a noob so i probably don't know anything
-9   May 24 2003, 12:00 am by sargasm |
never mind- look in the other version its
|-3p2-2-2---------|
|-----3-3---------|
|-----------------|
|-0---0-0---------|
|-------------0-2-|
|-----------------|
+1   May 26 2003, 12:00 am by NoNEeedFOrANAmE |
freaking awsome tab man led zeppelin forever
June 6 2003, 12:00 am by deprived420 |
good JOB
-7   June 23 2003, 12:00 am by deportivo |
excellent job. and even if you did copy it, typing that all out is one hell of a job. *****
-8   July 5 2003, 12:00 am by magicguitarman6 |
well even if he copied this out of a book it still would have taken a sh*t load of time to type it all out! Graet tab though
July 7 2003, 12:00 am by bassrocks |
awesome tab dude
July 7 2003, 12:00 am by bassrocks |
awesome tab dude and who cares if u got it out of the book as long as it is right i aint complaining
July 20 2003, 12:00 am by guywithguitar |
okay how the hell did we get from talking about this tab to a debate on the war?
+3   July 24 2003, 12:00 am by aperson2016 |
has anyone seen my tuner?

Lost and without a tuner.
-7   July 29 2003, 12:00 am by MetalheadBuddha |
Ibanez all the way, baby.
Awsome tab, man.
My mom's b/f taught me some of this song.
First song i learned.
Good Job on tab man.
It doesnt really matter if you did copy

this because your doing a public service.

- ? Rob ?
July 31 2003, 12:00 am by AvrilLavigne |
great thorough tab
August 1 2003, 12:00 am by offtherails |
This tab is awesome. If you disagree, then you're wrong:) Who cares if it's from a book or by ear or wherever he got it. It really means nothing. If you're not gonna comment on the Tab and it's accuracy, don't comment at all.
August 2 2003, 12:00 am by LiL_rocker808 |
and this sonh has been #1 on 100 top rated tabs for at least a year
August 12 2003, 12:00 am by LESpaulHIMSELF |
great tab. by the way vayne its all about gibson les pauls. the everything guitar. anyways, it doesnt matter if u tabbed it out or copied it. the fact that yur sharing it is good enough for us
August 16 2003, 12:00 am by greendayfan887 |
This is a tab that god would praise this is the greatest tab ive ever seen!
+2   August 17 2003, 12:00 am by AcDc1087 |
On taking the time to write the tab, very good I applaud your dedication, and I agree with every outraged positive commentator.

On the people not constructively criticising you, they don't have the heart and soul that goes with being a guitarist.

On Led Zeppelin: WHO THE HELL WRITES A SONG THAT LONG?

On music: Let there be rock
August 17 2003, 12:00 am by AcDc1087 |
Oh yeah and Gibson kicks all ass
+3   August 18 2003, 12:00 am by fear_ofthe_dark |
anyone who doest like zeppelin should die a horrible fiery death
-1   August 22 2003, 12:00 am by LiL_rocker808 |
wow this is a great tab heh.....good job
i doubt that your under the age of 30 yrs old tho......or u got this outa book
but anyway
good job
+2   October 12 2003, 12:00 am by hendriksfan |
this is the first tab I've seen with the correct solo, you're awesome My bra!!!
oh, screw the guys that said this tab sucks because it's better than they'll ever do.
+2   November 2 2003, 12:00 am by the anus |
wen he says Our shadows taller than our soul.
after the solo i tought he said "i should have stolen and i stole".
+4   November 29 2003, 12:00 am by guitar2592 |
UHHHHHHHHHHHHHHHHHHH WOW!!!!!!!!!!!!!!!!!
i am totally speechless on how good this is!
WHOAAAAAAAAAAAAAAAAAA JOEEEEEEEEEEEEEEEEEEEEEEEEE
+2   December 1 2003, 12:00 am by perfec_circl |
maybe they should remove some of these bull*** comments...........
January 25 2004, 12:00 am by zepprocker |
first of all they named it led zeppelin because the lead singer of the who (rodger daltry) said they would go down like a led balloon second of all how could he of copied it out of the book if its not the same as the book third of all just great tab might not be the exact but it sounds right and thats all that matters
+1   January 26 2004, 12:00 am by ULTIMINT PIMP |
so this is still the number 1 tab? hmmmmmmmmmm..............
-5   January 28 2004, 12:00 am by NiRvanAcobain |
THIS IS THE BEST SONG IN THE WORLD!!!!! BUT THE 2

4 part is wrong.
January 31 2004, 12:00 am by penguinhobo |
great tab, but i believe "led zeppeling" is led zeppelin
February 10 2004, 12:00 am by tiftcte |
almost 500 votes!! just another 22 i think
-1   February 11 2004, 12:00 am by tiftcte |
im not sure if im right but is this the right bit for the end??

Am C G F Am C G Am
E-0---------:-----------------:---------:-----------------:-----0---:
B-1---------:-------1-------0-:-1-1-----:-------1-------0-:-----1---:
G-2-----2---:-----0-------0---:-2-2-----:-----0-------0---:---2----2:
D---2-------:---2-------0-----:-3-2-----:---2-------0-----:--2------:
A-0-----0-2-:-3-------2-------:---0-0-2-:-3-------2-------:0-----02-:
E-----------:-----------------:---------:-----------------:---------:
-9   February 19 2004, 12:00 am by tiftcte |
YEEEESSSSSSS 500 VOTES (THTS A HOLE BLOODY LOT!)
-9   March 29 2004, 12:00 am by tiftcte |
I NEED HELP!!! I NEED TO NO WHAT BITS ARE DONE IN 12 STRING AND WHICH ARE DONE IN 6 STRING!!!
-8   March 29 2004, 12:00 am by Punkrocker87 |
Great Tab! no offense but you are a DUMB ASS!!! It's Led Zeppelin Not Led Zeppeling. JACK ASS.
-7   April 15 2004, 12:00 am by guitar_freak333 |
Hey nice tab, Led Zeppelin rules major ass, and with your help I can now play one of the greatest songs of all time. Thanks to you.
Rock on who ever you are
+2   May 7 2004, 12:00 am by Elm |
Great tab!

;P
+1   June 4 2004, 12:00 am by Elm |
Which Version on this is the best?... or should i just get it all and use the best of them all.... im confused
+1   June 16 2004, 12:00 am by zephendrix |
This is the only song that brings me to tears. I cried myself to sleep last Wednesday listening to it. I don't know what kind of secret power it bestows, but whatever it is, kudos to Page, Plant, Bonham, and Jones for creating this materpiece. Good job with the tab too, man. I don't really care if you copied it or not out of a mag...I got it for free and it saved me a trip to the Music Nook. Thanks. Now to go learn it
June 20 2004, 12:00 am by Raging_Lincoln |
god/buddha/other god's gift to Led Zep fans, good on yer
+1   June 20 2004, 12:00 am by Raging_Lincoln |
oy VaYnE, you wnaker, the book version is very VERY different
+3   July 15 2004, 12:00 am by idiotman |
I may be a dumb idiot *** asshole, but this tab is fan-friggin-tastic. I just wish I had enough paper to print the mofo.
-14   July 18 2004, 12:00 am by mcveigh35 |
Owwww!! yyeeee heee i'm Michael Jackson and ma friend roneee says this this tab be better than ma big green mother***** giant

Check the coneee OWwww!!
+2   July 30 2004, 12:00 am by guitar_freak333 |
beautiful tab, best one, and this is probably very hard song to get all the timings and chords notes and stuff like taht down so perfectly, amazing
+1   August 3 2004, 12:00 am by Shrek56 |
amazing tab, 1 of the best on this site probably
+2   September 2 2004, 12:00 am by Strat_guitarist |
ok, weve established that he spelled zeppelin wrong. get over it. and who cares if he copied it? you came here for a zeppelin tab, and here it is! or would u want someone to submit one that they made thats probably wrong? whether he copied it or not, the guys got talent! awesome job bro!
+2   September 7 2004, 12:00 am by troutBoy |
mcveigh35, ur a twat.

great tab
-1   September 18 2004, 12:00 am by Guitar328 |
Im the 776 vote woohoo!
-6   October 4 2004, 12:00 am by Señor |
awesome tab...and a fukin awesome song. some guys were talkin saying that the tab is copied from the tab book..ok, who gives a flying ***? the only thing that matters is that we have a 100% perfect tab for this great song
+2   October 5 2004, 12:00 am by fingerpkngood |
Great tab (stolen or not) for a great song. Does anyone besides me hate when you print a tab and part of the "strings" are on one page and the rest are on the next page? Four words: Scotch tape and scissors (or "sizzers" if your prefer to type "zepplin" instead of Zeppelin.)
+1   October 18 2004, 12:00 am by icarus_33 |
yes dude i swear man that is like the queerest thing, led zep rules, this tab rules, and i have chronic constipation!


and you know what that means, i know i dont
October 20 2004, 12:00 am by TheWrEcKeD |
Hey, can anyone help me on fixing my tab (you know when its all messed up so u can get it equal when u submit it Ive been in the wordpad and tried everything, nothing works. Help please.
October 21 2004, 12:00 am by atc228 |
dude, excellent, it doesnt matter if its outa the book if its right, besides this is cheaper than buying the book, o and although its excellent, u spelld "Led Zeppelin" "led zeppeling" but o well
October 22 2004, 12:00 am by IanvomSaal |
Just a couple mistakes - Remember, even books have mistakes as they're usually transcriptions by somoneone other than the artist - Page played a Telecaster on the original recording of this song, not a Les Paul, look it up.
-1   October 22 2004, 12:00 am by IanvomSaal |
~There are only a couple mistakes in this transcription, so good copying.
Remember, even books sometimes have mistakes in them as they're usually
transcriptions by somoneone other than the original recording artist.
~Interesting Little Fact: Jimmy Page played a Telecaster on the original
studio recording of this song, not an SG or Les Paul as everyone may
think - You can look this up if you don't believe me.
He's known as somewhat of a chameleon because of his ability to change
the tone of one guitar to make it sound like another.
Happy Playing~
+2   October 24 2004, 12:00 am by icarus_33 |
dude jimmy page is badass
i lack the coordination to play some of the notes on the d string so i get my buddy to play those

is that cheating? lol
+2   October 30 2004, 12:00 am by icarus_33 |
scratch my last post, ive worked on this song since and i can do it now
+2   October 31 2004, 12:00 am by DanSumthing |
This tab's been up for like 4 years, and no one bothers to fix the "Zeppeling" typo? What thell?
-3   November 1 2004, 12:00 am by icarus_33 |
3 year anneversary on the 27th, who is led zeppeling by the way
+2   November 4 2004, 12:00 am by GreenDayChris |
great tab man!
-4   November 21 2004, 12:00 am by atc228 |
this is really good
+1   November 21 2004, 12:00 am by lespaulmonkey55 |
yeah he copied it outa the book, but still he took the time to type it out and no one else should really even care. but i wish he hadnt spelled the best rock-band in the world`s name wrong. and the solo is palyed on a 12 string believe me it sounds better.
+2   November 23 2004, 12:00 am by ctb |
great tab!
-9   November 24 2004, 12:00 am by lespaulmonkey55 |
tenacious d..........................thats all i can say.............
-3   December 8 2004, 12:00 am by Matze |
This tab isn't 100% correct, but it's still great that someone takes the time to share his knowledge with others
-3   December 10 2004, 12:00 am by Robo_Hobo |
Why would anyone write something this great unregisterd?
-6   December 19 2004, 12:00 am by xsilly goosex |
i know man, he spelled led zeppelin wrong, how does someone type in 13 pages of tabs and spell the band name "led zeppeling"
-4   December 25 2004, 12:00 am by ror |
it christmas day, i got a new guitar
-4   January 11 2005, 12:00 am by TheMutts |
the perfect tab ever and he spelled led zeppelin wrong.. HAHA!
-3   January 17 2005, 12:00 am by mooretsu |
Had this guy registered, he would've gotten mad naked pictures from the zeppelin fans.
-4   January 18 2005, 12:00 am by TheMutts |
..eh..riiiiiiigghtt...
+3   January 24 2005, 12:00 am by az smith |
fantastic tab, dont listen to the *** comments that sum people post in they're full of ***
+3   February 2 2005, 12:00 am by GollumLP |
This is the best tab of the best song. Led Zeppelin Rules!!!
-2   February 24 2005, 12:00 am by SoftParade |
No need to be so harsh, the guy was kind enough to share the right tabs with us and saved a lot of out time trying to get the right sound. So thanks man!

And yea Led Zeppelin rules if not prehaps more then that!!!!!
+1   February 27 2005, 12:00 am by mikedeit |
WOW! This is like, the best tab ever! You should get a million
dollars, or something! Great Great Great Great Great Great Great
Great Great Great Great Great Great Great Great Great Great Great
Great Great Great Great Great Great Great Great Great Great Great
Great Great Great Great Great Great Great Great Great Great Great
Great Great Great Great Great Great Great Great Great Great Great
Great Great Great Great Great Great Great Great Great Great Great
Great Great Great Great Great Great Great Great Great Great Tab!
Led Zeppelin Rules!
+1   February 27 2005, 12:00 am by mikedeit |
Almost 1100 votes! What a historic moment for Ultimate Guitar
March 6 2005, 12:00 am by SoftParade |
mikedeit! Not even Led Zeppelin got a million dollars for making that sonslittle...lillte too much to say that he should have it for putting the tabs here =/
March 7 2005, 12:00 am by Iboseth |
Thanks I didnt owned the magazine so THANKS A LOT.... by the way... IBOTANA EXPERIENCE rocks!! (my band lol)
March 12 2005, 12:00 am by saturns_bassman |
nice tab man
March 12 2005, 12:00 am by DrewRoth |
To all the people with war comments, etc., all i have to say is this: If you do what you've always done, you'll get what you've always gotten...I'm not standing one way or another, but just think about it, k?
Tab rocks dude. I still can't play the solo and have it sound right because I'm playing on my bass amp (after two years, still) and can't get any kinda distortion, but i can tell enough that it sounds awesome. rock on. and someone misspelled damn. a lot of times.
-2   March 21 2005, 12:00 am by Robo_Hobo |
Hi
-3   March 22 2005, 12:00 am by ctb |
Hello
April 6 2005, 12:00 am by terrance_M |
not to shabby
-3   April 9 2005, 12:00 am by ash_s137 |
Anyone seen the tab from www.mikesguitarsite.co.uk? Is this one more correct? The part just before Plant says "and she's buying a stairway to heaven" right at the very end is the part I'm interested in comparing. This tab has it like this:

-------
----13-
-15b17-

for example and mike's has it:

-------
-13----
-15b17-

Which way is correct? Also just before the solo starts it sounds like Jimmy plays a few single notes (like right before the solo!) but this tab only has chords. Just asking, not making any statements because I'm really not sure. Anyone?
April 27 2005, 12:00 am by TheMutts |
i would go with mikesguitarsite...... i'd say 99.9 % of all their tabs are 100% outstanding and I trust them...
+1   May 4 2005, 12:00 am by huMus |
HAHA! What kind of ***s vote less than 5 when it's the perfectly right version?! :D
May 6 2005, 12:00 am by ash_s137 |
Having looked at it for some time I agree with you Mutts, Mike's guitar version is better, at least for the electric part and that's all I'm concerned with really.
June 23 2005, 12:00 am by jbrowneatseggs |
yo man what a groovy tab dude!!!
June 26 2005, 12:00 am by bloodred16 |
I don't think i have 13 pages of ink lol jokes man jokes ***ing great tab u rock my unbelivably cool socks! 1320 can't be wrong when rating this! wooooo i'm one of them!:D u rock man! who gives a *** if u copied it, it right and that's what matters! i love you!
+1   June 27 2005, 12:00 am by playgtr055 |
good tab. id be willing to bet this is the most played song ever on guitar. it was number one for 3 years except for a month or however long it was because of maroon 5...i still dont see what some guitar played see in those guys. if you wanna get good at guitar, turn off the maroon 5 and good charlotte and listen to some zeppelin, 80's metallica, and some pink floyd.
-3   July 2 2005, 12:00 am by mrbassman |
What a song WHAT A SONG


EEERRR WHO IS ZEESE Led Zeppelin?
-3   July 3 2005, 12:00 am by bmwoody |
lol, you mean 'Led Zeppeling' ... Nice tab, bad spelling ;P
-1   July 16 2005, 12:00 am by UG Master |
This tab has been up for a very long time, and we, at Ultimate Guitar would like to honor it as our very best tab of all time. Thank you for commenting on it and, keep tabbing!
-1   July 16 2005, 12:00 am by UG Master |
No jus playin dawgs i'm not part of ug lol
-3   July 25 2005, 12:00 am by GibsonFender |
~Good copying - There are only a couple mistakes in this transcription.
Remember, even books have mistakes in them - most books are usually transcriptions by
somoneone other than the original recording artist.
~Note: Jimmy Page played a Telecaster on the original studio recording of this
song, not an SG or Les Paul as everyone seems to think - look it up.
Jimmy Page was known as a tone-chameleon because of his ability to change the
tone of one guitar to make it sound like another.
Happy Playing~
-1   August 17 2005, 12:00 am by somewhat_here |
right before jimmy kicks off the solo he does play a couple notes

A--2p0----
E------3--

it's not much but someone said something about it
-3   August 17 2005, 12:00 am by somewhat_here |
right before jimmy kicks off the solo he does play a couple notes

A--2p0----
E------3--

it's not much but someone said something about it
-3   September 2 2005, 12:00 am by Mr.Jack_SG |
the guy up there reapeting himself like a million times what an idiot but anyways good tab
+4   September 3 2005, 12:00 am by J_Dizzle |
Dude I thought The comment thing I'm typing in was closed off because this is so long/ stretched out... anyways great great great great great great great great great great great great great great great great great great great great great great great great great great great great great great great great great great great great great great great great great great great great great great great
tab! Haha I was just making fun of those tards that post the same thing... Seriously how much time do you have on your hands???
-1   September 7 2005, 12:00 am by peepee182 |
since Jan 19 05 i love her sooooo much
September 24 2005, 08:12 pm by Brian Gelvin |
at the very intro it's missing one part.
-1   October 4 2005, 07:14 pm by claydoe222 |
you have way too much time on your hands but good job
-5   October 7 2005, 11:25 am by Rorybondman13 |
solo= wrong in my opinion but maybe i'm just rubbish. Bass= better + who are the idiot's who have put in these huge blocks of text! I could hardly find the writing box! JANISSARY ROCKS!
October 8 2005, 02:11 pm by Jamie93 |
Well, i fixed you vote number 1500!
Congrats, whoever you are, thanks to you, i actually learned this song!
October 9 2005, 05:58 pm by nate898989 |
BEST TAB EVER I LOVE IT IT ROCKS DUDE IM SO HAPPY I FINALY FOUND IT!!! LED ROCKS!!
-1   October 12 2005, 02:49 pm by AC/DC10 |
o wtf i thot i cudnt leave a comment like there was to many lol it was just moved over ------>
October 19 2005, 09:22 pm by theguitarman07 |
OK we dont care if you love your woman, this is a tab comment page
not a I love you page go find a different F***kin site to post your
love notes on. GREAT TAB whoever you are and by the way we HAVE
ESTABLISHED THAT HE SPELLED THE NAME WRONG GET OVER IT AND PLAYTHE FRICKIN SONG!!!!
October 24 2005, 06:05 pm by Donkey Fly |
Wow..... that's amazing

you could just download the power tab though and save hours......
November 4 2005, 01:58 am by Muppet |
Amazing tab. Nice with the lyrics below it. It makes is easier to play and sing.

This is probaly the best tab on the internet. Accurate and simple, can't get any better!
November 4 2005, 05:25 am by andreas5 |
this is just sooooo good !!!!
November 8 2005, 06:39 pm by karateguy29 |
great tab
November 21 2005, 06:04 am by Will_Gum |
Before it goes to the slide up and down one fret (the bit people keep posting "easier" ways to play) It's actually just a G chord and then an Am chord and then the slide up..no stupid little:
e|---------| e|---------|
B|---------| B|-0-1-1---|
G|-0-2-2---| OR G|-0-2-2---|
D|---------| D|---------|
A|-2-0-0---| A|-2-0-0---|
E|---------| E|---------|
But yeah great tab
+2   November 26 2005, 10:07 am by andreas5 |
can somebody tell me how you can do this : | --0-/8-7| , cause how do you slide from an open ??
November 26 2005, 11:42 am by robt18 |
you play the open string then hammer on 1 and slide it up to 8 in one motion
November 27 2005, 09:20 am by AntMic888 |
E|-0-----0---------------|
B|---1----1--0-1---------|
G|-----2---------2-------|
D|-3---------------------|
A|-----------0------0-2--|
E|-----------------------|
Oooh and shes
IS THAT RIGHT??????????????????????????????????????????????????????????????????????????????????????

dont look right
other than that, great tab!
November 27 2005, 10:20 am by AntMic888 |
Wait no sorry I read it wrong, timing was wrong :) great tab
-8   December 16 2005, 05:02 am by ZEiNDEiN |
FUCK ALL OF YUO
+2   December 17 2005, 01:21 pm by Flea_Metallica |
^Ahh **** ya too bitch!!! Oh yeah nice tab guy.
+2   December 22 2005, 08:51 pm by aPIRATEwithADD |
*bows*
Thank you for the wonderful tab
i salute you!
+2   December 24 2005, 06:19 am by PunkInDrublic |
¤Amazing¤ Klapp*klapp
+1   December 26 2005, 10:04 pm by mrhs31 |
this is a pretty good tab, most frickin votes ive ever seen
+4   December 28 2005, 02:09 pm by ShaDoW0lf |
Ok, first thing. Those of you who said this tab sucks... this is one of
the best tabs I have ever read, and about 9\10ths of the people here
agree. Well done for putting it up. ignore the fags.
Regardless of how old you were when you commented, you guys suck.
Secondly, for those who said Led Zeppelin sucks, you wouldnt know a
talented band from the diaper that you are wearing, so stfu and go get
high on that shit suicidal music you love so much, fags.
+5   December 29 2005, 06:34 am by Innit |
Led Zeppelin RULES!!!!!
This tab is perfect!!!!
Compliments to you who made the tab.
+2   December 31 2005, 07:15 am by gtrplayr1 |
nice tab dude. this song is great!!
-4   January 4 2006, 03:39 pm by 2020vision |
omg whers the chease
+1   January 8 2006, 12:25 pm by italianboy01 |
OMG thats amazing
even if u did take it from the book thats a fukin awsome tab

dont listen 2 them thats a crazy tab

o and it is imbarissing that u spelled Led Zeppelin wrong
January 8 2006, 12:26 pm by italianboy01 |
o ya and no more cheese
-1   January 9 2006, 10:45 am by mort1 |
why is this tab so ****ing poppular
January 12 2006, 01:47 pm by boschman9792 |
This is ****ing crazy!!!!!!!! i give u mucho kudos good job man
January 13 2006, 02:59 pm by fallinsuburbia |
mort1 asks us:
why is this tab so ****ing poppular

Because this song is so good.
Kudos to the person who sent this tab in.
And why does a lot of people say this tab stinks?
This is a good song. It seems everytime I go to
The music store to get something, The one guy who
works there has some fettish with playing his
45 minute long rendition of this song.
+1   January 28 2006, 08:34 am by Ramones Nutter |
uurgh spammers always have to ruin things like this, dont they?

great tab, i agree with whoever up there said you missed off the third section of the intro. still deserves 5* just for the effort of tabbing out a song like this, Ramones and powerchords are bad enough.
+1   February 5 2006, 11:30 am by slash_fan |
hey there
great tab im learning it
cheers :)
+1   February 11 2006, 04:49 pm by jj1565 |
*TAB CLEANED OF SPAM* any spam posted after this will get warned.
+1   February 13 2006, 08:43 am by Rags |
nice....
+1   February 13 2006, 01:54 pm by mezmetized33 |
umm,holy crap this is great
-1   February 14 2006, 01:56 am by Darkblade24 |
i hav 2 words for u.
"GOD DAM!!!!!" Its absolutely awsome m8! 5 stars! ;)
February 15 2006, 12:47 pm by blinx_182x |
its awseome!
February 15 2006, 03:44 pm by n0e |
GGRRRRR i keep typin it wrong lmao srry ... it goes like

------------------|------------------------|-----------------0--|--0--------|
------------------|-0h1----------1---------|-------1---------0--|--1--------|
-------0------0---|-----2-------2----------|-----0--------0--2--|--2--------|
-----2------0---0-|---------2--------------|---2--------0----3--|--2--------|
-0h3----3-2-------|-------0----------0--2--|-3--------2------3--|--0---0-2--|
------------------|------------------------|-----------------1--|-----------|
February 18 2006, 07:58 am by trixxx |
Hey, I just got a guitar and I tried to play a melody from this song by using only E(or E, B) string. Just the part when he begins to sing: "there's a lady... and she's buying a stairway to heaven". It should goes like this: E: 5-7-8-10-8-7 but I don't know how to continue. Can somebody help me?
-1   February 18 2006, 02:41 pm by jj1565 |
[02/15/2006 - 12:47 pm] by blinx_182x : |
Donkey fly your a ......

SPAM deleted.
February 20 2006, 02:57 pm by schetts07 |
incredible dude you r like my hero.
-1   February 26 2006, 11:37 am by Dirtydeeds468 |
amazing tab. Ur a god : Zeppelin forever!!!
March 1 2006, 01:44 am by METSOAD |
Why are you so good? This tab is stupendous
March 1 2006, 05:56 pm by thekrnjigga |
terrific tab man
it took me like half n hour to tab all the way up to like the chorus
u r a genius for tabbing this and correctly too
i admire ur patience
March 2 2006, 01:35 pm by Naitsabes |
Yeah awesom tab
Best ive heard!!
Seb
March 4 2006, 10:13 am by Nichols12 |
This tab is perfect I listened to the song while going over the tabs and there is no mistake. If you tabbed this yourself, it had to take at least two months to get it down and set the lyrics with the tab. I wish all tabs were like this. 5*
March 8 2006, 12:30 pm by wood2168 |
this tab rocks!!!! zeppelin rule!!!
March 12 2006, 05:46 pm by WhiteSurf208 |
ur god
March 12 2006, 06:41 pm by fretsofhell |
Thank you and thats all i have to say about that.
March 14 2006, 12:47 am by nin10doe |
awesome man. im only 13 years old. wow this tab is awesome. thank you. ur tabs is so good and so ez. i learned this thing in just 2 days because of you. (school break)

right oN!!!!!

nin10doe
March 14 2006, 12:53 am by nin10doe |
I just have to say again, you are the greatest. i think ur lyk a celebrity hear in UG. u have like 1000 some votes. i give you 5 stars. U ROCK MAN

p.s. im not entirely done with the song... im still working on the solo

\m/
nin10doe
March 16 2006, 07:13 pm by GollumLP |
It is the best tab I've ever seen in this page.
If I could give it six stars, I would do it.
Excellent!
March 17 2006, 11:33 am by waldronsteven |
great tab man
March 18 2006, 06:48 pm by jakishere |
YE KWL TAB DUDE!!!!!! U got me a B+ 4 MY GCSE MUSIC!!!!!!!! Cheers!!!!!!!!
+1   March 19 2006, 11:38 am by acoustic-fish |
who cares if he copied it? i dont know where he copied it from, so im glad he did, or i would never get it! awesome, are you jimmy page?
March 21 2006, 05:19 pm by hardrockker917 |
it would be nice if the 12th bar was there
March 23 2006, 01:55 pm by {Mike} |
holy shit man
March 24 2006, 11:57 am by lazyboat |
lol the best stairway tab in existance and he/she spells zeppelin wrong
March 25 2006, 08:39 pm by vanzeppdrix27 |
lyrics totally rong,tabs ok
April 1 2006, 12:18 pm by Negative_Creep7 |
god damn this is awsome
April 2 2006, 10:50 pm by darkenedmalice |
oh yeah man awesome tab must have taken a long time to tab it out
April 5 2006, 03:08 am by like a glove... |
taken u ages hey man like meh fek it i know u coppied it out but thanx 4 that as well better than going n buying the right version i guess

kristie xoxo
+1   April 6 2006, 07:36 pm by ScottStappFan22 |
This tab is great
April 7 2006, 12:23 am by Rajah |
[01/03/2003 - 12:00 am] by johno182 : |
uh the part were he sez it makes me wonder is wrong ive got the official tab book and this is how it goes
Official tab book? What, Jimmy Page sat down and tabbed it? You dumb bastard.
April 9 2006, 10:59 am by waldronsteven |
wat da hell r u on bout mckillswitch?
April 11 2006, 09:07 am by Homer F. |
This is probably the best tab on this website! Thank you, unregistered!!
April 13 2006, 11:33 am by ..NEM.. |
I can't see how you first made a awesome tab, but then you spelled Led Zeppelin wrong?

April 13 2006, 09:38 pm by Jono45 |
for the start if the intro what is the chord shape i can start with?
April 14 2006, 12:53 am by IUseAPurplePick |
start with your 1st finger over the 1,2,and 3 strings, and put your 3rd finger on the 4th. then as you go down, move your 3rd finger to the 1st string.

to unregistered:
you must be a frickin guitar genious to figuire this stuff out, or if you copied it out of a book or a mag or whatever.it must've taken a long time to write it all, too. lol i bet you hired a leprechaun to do the typing for ya! *wink* lol sweet tab. best i've ever seen and best i ever will see, and thats a safe bet. 5*
April 14 2006, 12:56 am by IUseAPurplePick |
oh, and if you have a chorus effect built in to your amp, (my Rocktron amp has one) turn the depth all the way up and the rate to about 3, 3 and a 1\2 to 4 while playing this and it sounds really cool.
April 14 2006, 06:49 am by FagNasty |
This is a good tab, but to leave a section out from the intro it's wayyyyy overrated.
+1   April 16 2006, 06:16 am by RHCP_25 |
WOW!!!AMAZIN TAB THANX!!!
April 16 2006, 09:37 am by RATicuZZ |
extensively comprehensive, informative and positively splenditive
+1   April 16 2006, 11:38 am by OddOneOut |
its an awesome tab.
but i've been struggling with the 2nd half of the intro. why?
'cause theres a bit missing. this should be somewhere in the intro.
|-3^2-2-2-------|
|-3---3-3-------|
|-2-----2-------|
|-0-----0-------|
|---------------|
|---------------|

but if you scroll down to the 2nd version, it has this part..
its a complicated matter but i definately can see theres a bit missing.
but otherwise awesome tab. my fave bit has to be where the strumming starts ^^
well done dude
April 16 2006, 01:43 pm by Wouter-guitar |
DAMN this is really the best tab i've ever seen.
everything is so perfect prescribed.
i think it's also one of the best songs though.
yeah really the best tab on this site.
April 16 2006, 01:55 pm by Super Slinky PJ |
The most popular tab on the website and he spells Led Zeppelin wrong!For GOD SAKE!
April 16 2006, 03:19 pm by d_man_dude |
holy shit this good
April 18 2006, 04:45 am by _futurerockstar |
the lyrics are wrong, although the song is correct. u blatantly dont no how to play this and have just copied it, these are meant to be ear transcribed not ripped out of guitar books.
April 24 2006, 09:03 pm by zZMcRZz |
nice tab good effort
April 24 2006, 09:23 pm by Charles Byram |
Awesome tab, it's perfect! Stairway To Heaven is like the anthem of rock! I love playing this song!! Rock on!!
April 25 2006, 08:47 pm by green_rox |
but other than that awesome tab dude!
+1   April 25 2006, 09:36 pm by pieman777 |
this tab is ripped from led-zeppelin.org....

look your self...
April 26 2006, 08:10 am by jj1565 |
*spam deleted.
WARNING FOR SKINNING LYNYRD
WARNING FOR EMOrocker666
April 26 2006, 04:58 pm by green_rox |
THIS TAB FREAKIN ROCKS!!!!
April 26 2006, 09:03 pm by green_rox |
ZEPPELIN NOT ZEPPELING GEEZ!!!!
April 26 2006, 11:24 pm by lil_nole |
pieman777...if you actually looked at the tab u would see its different than the one at led-zeppelin.org
April 27 2006, 11:46 am by jj1565 |
[04/26/2006 - 08:37 pm] by skinning lynyrd : |
Warning spam.

-1   April 28 2006, 07:29 pm by john5rocks |
the solo is wrong
April 28 2006, 07:50 pm by green_rox |
john5rocks..wat is the solo?
April 29 2006, 11:28 am by Aenima42 |
overrated
April 29 2006, 04:24 pm by jsussman43 |
sick tab....word
May 2 2006, 02:52 am by METSOAD |
Just one little gripe, the second chord behind the main solo is a g, not and am7
May 4 2006, 09:54 am by imanubguitarist |
|-3p2-2-2---------|
|-----3-3---------|
|-----------------|
|-0---0-0---------|
|-------------0-2-|
|-----------------| can any1 tell me how to play this? am i supposed to jump over the 4th string or sumthing?
May 5 2006, 04:07 pm by paulie99 |
You cheated! You understand notes, and wrote it down as "your" tab,
and got the notes down from the Led Zeppelin book!!! I know, because
i have it!
May 7 2006, 12:05 pm by robt18 |
Okay dudes, we've already established that he took the tab from a book. Who cares. You now have the tab, and evidently you've all used it on here, as you searched for it. Also, this person probably knows the band isn't 'Led Zeppeling', it was a typo, not him/her not knowing the bands name.
May 8 2006, 09:26 pm by GwitarGirl |
Or maybe... he just LISTENED and got it right! Like whoa!
May 8 2006, 10:43 pm by Riffer_maddness |
hey zepp rocker the name "led zeppelin" comes from when jimmy page told keith moon (drummer the who) that hes forming a band and keith moon said that would go over like a Lead Zeppelin so the name is really a throwback in his face just so you know
May 9 2006, 09:49 pm by hardrockker917 |
[03/25/2006 - 08:39 pm] by vanzeppdrix27 : |
lyrics totally rong,tabs ok

The only reason the lyrics are like that is because he (or she) lined the words up perfectly with the guitar part.

[05/04/2006 - 09:54 am] by imanubguitarist : |
|-3p2-2-2---------|
|-----3-3---------|
|-----------------|
|-0---0-0---------|
|-------------0-2-|
|-----------------| can any1 tell me how to play this? am i supposed to jump over the 4th string or sumthing?

Put a spare finger over the 3rd string to stop it from ringing and play it like a chord.
May 11 2006, 05:11 pm by BasketCaseGVD |
great job, who cares if you copied it out of a book? typing tabs isnt that easy. this is the sweetest stairway tab and beats no other.

to play the live intro play this at every Fmaj7 in the intro
|0----------5-3-1h3p1-----|
|---1-----1-----------0-1-|
|------2----5-3-2-----0-2-|
|3------------------------|
|---------------------2-0-|
|-------------------------|
-1   May 11 2006, 05:12 pm by BasketCaseGVD |
oh yeah play that Am twice, not once
-1   May 13 2006, 05:00 pm by TheNthDimension |
At time of writing, 1938 rates...325 comments...and you spelled it Led Zeppeling.

Awesome tab though, thanks. My guitar teacher taught me a rather warped version of the intro and I thought it sounded wrong...
May 14 2006, 10:42 am by Led_Zeppelin992 |
nice tab man but you forgot one part:
Just thought i would let you know buddy.

E|--3-3p2-2-2----------------------------
B|---------------------------------------
G|---------------------------------------
D|---------------------------------------
A|---------------------------------------
E|---------------------------------------
-1   May 15 2006, 06:40 pm by sinson |
i love you, this tab changed my life. i'm leaving all my money to u if i die.
-1   May 16 2006, 08:59 am by jsussman43 |
wow...thats all i could say
-1   May 17 2006, 01:30 pm by shadowpriest |
Awesome tab dude, great song also
-1   May 17 2006, 08:51 pm by FakinHi |
Super tab dude. Those ghettos that say shit about u ain't got no music love.
May 20 2006, 01:21 am by slash_fan01 |
This tab is pretty ****in' good!
+1   May 22 2006, 09:24 pm by Riffer_maddness |
the intros easier if you play it w/ your fingers
-1   May 23 2006, 10:58 am by ksjayhawksfan |
it would be alot easier if the chords were above the places for pickiing
-1   May 24 2006, 01:30 pm by woodgerm |
dude this is the best tab ive ever seen u must have spent ages on it
-1   May 26 2006, 12:16 am by imer33 |
wow this is unreal great tab
-1   May 27 2006, 03:34 am by LvrGrl89 |
holy shit**** this was the best tab i have seen ont his entire ****ing website! keep up the good ****ing work!
-1   May 27 2006, 04:50 pm by gibsonrocker917 |
great tab... ok the like best tab EVER!!!

umm... i have a better way to play the one spot in the intro that everyone has already noticed, but none have mine. so yeah...

instead of this:
-------
-0-22--
-0-22--
-------
-2-00--
-------

play:
-----5-
--3-55-
--4-55-
--5-77-
-------
-------
idk - just my opinion

-1   May 27 2006, 10:56 pm by gibsonrocker917 |
ok, i said that first one wrong, but you know what i mean
-1   May 29 2006, 07:25 am by LP Junior |
You really did a great job there, my friend. Really good.
-1   May 29 2006, 06:32 pm by Benny_J_9 |
haha just kiddin man really good tab
-1   May 30 2006, 05:02 pm by iron.zeppelin |
pretty good, pretty damn good
-1   May 31 2006, 04:45 pm by Bixy |
Amazing
May 31 2006, 09:02 pm by blink-182.5 |
5 stars
-2   June 3 2006, 08:04 am by roxorzroxz |
I have to say great tab and if anyone complains about this being a hard song realy must stink because i have been playing for two months and i can already do just before the solo so..
-1   June 4 2006, 07:15 pm by sotoonfire |
amazing tab
June 4 2006, 08:41 pm by TheRollingStone |
dude, awesome tab....enough said
June 5 2006, 01:53 pm by tuhreeshah |
faves.... :D
+1   June 5 2006, 08:49 pm by AngusYoung246 |
on the intro you didnt put in the part that goes
-3p2-2-3-
-3---3-3-
-2-----2-
-------0-
---------
---------
-1   June 7 2006, 02:52 pm by deadhead0661 |
Awesome,thanks,you rule,and so does this song!
-1   June 7 2006, 08:25 pm by dr.guitar |
DUDE, that tab is like EXACT. Awesome man!
-1   June 9 2006, 04:30 pm by the fallen |
****ing awesome tab, man. Amen.
-1   June 10 2006, 07:38 am by refused06 |
awesome tab dude,you spelled zeppelin wrong btw.lol
-1   June 12 2006, 10:13 pm by guitarfreak1270 |
one word... amazing
-1   June 13 2006, 09:49 pm by guitarreader |
i'm with guitar freak ur absolutly amazing
June 13 2006, 11:21 pm by limade123456 |
that was gooooooooooooooooooooooooooooooooooooooood u notice how pplz with guitar in their name piss themselves over this tab?
-1   June 14 2006, 08:24 pm by Blood Hawk |
Great Tab man
-1   June 15 2006, 06:55 pm by nolifemusician |
WOW!!! this tab rules ill learn the whole thing in like a month or two
at least i wont waist 20 bucks:p
great tab dude rock on LED ZEPPELIN RULES!
-1   June 19 2006, 01:51 pm by acefrehley |
nice, if anyone cares, this dude, put in major effort, and everyone that complained about spelling, its b/c you cant play it, and your mad. thank you.
-2   June 21 2006, 10:16 pm by limade123456 |
2 months it took me like a day (except for the solo) u should sell this id buy it if it werent for ultimate guitar $$$
-1   June 22 2006, 02:52 pm by robt18 |
If whoever tabbed this has since made an account on UG, let us know who you are in here, you deserve to be recognized.
-1   June 23 2006, 02:28 am by The_Raven |
Not even Jimmy Page could tab it as correct as this :) !
Good Work, keep sending this site tabs! :)
-1   June 24 2006, 08:28 am by TheRolingStoner |
You Are A Legend Mate Great Work :)
-1   July 3 2006, 03:16 am by Cal UK |
Brilliant tab. I love this song me and my Grandad are gonna hopefully play it on our guitars on christmas day this year if we can both learn it in time.
-1   July 3 2006, 05:58 pm by Ramones Nutter |
has anyone else noticed that version 3 of this tab has just been directly copied and pasted from this one?

there are some real dicks on this site
-1   July 4 2006, 11:21 am by tabak0 |
wow just wow... great great tab.
-1   July 4 2006, 12:56 pm by StSavior |
amazing nice tab!

keep on tabbing ;-)
-1   July 4 2006, 07:01 pm by jocksmock |
can I really trust it's good when so few have voted
-1   July 5 2006, 11:26 am by LongLiveRock628 |
ull b able to get it by christmas time Cal UK. 5 1/2 months is plenty of time
-3   July 5 2006, 06:36 pm by shortytwig1 |
not accurate enof, sounds wrong
-1   July 6 2006, 02:59 pm by the_king00 |
great tab
hard song to play though
-1   July 6 2006, 09:38 pm by Diet_C2 |
gr8 tab, who ever wrote this, too bad ur name is on it for all the glory ha
-1   July 7 2006, 10:55 pm by hi mom |
This tab is amazing. He did a great job showing how the song is played. By far this is one of the best jobs done on a tab I've ever seen. Led Zeppelin would be amazed.
-2   July 8 2006, 11:16 am by mfkr |
This is an incredibile tab. I've got a video of Led Zeppelin playing Stairway to Heaven live and I don't know which fingers he puts on which strings etc. if you get me. Anyone know how I can learn?
-1   July 9 2006, 05:40 pm by DeMoNhUnTeRuLeS |
im not a led zepplin fan, but any song that gets over 2000 freakin votes must be kik ass. i have actually never heard this song before. Its a shame that the person who made this tab is unregistered
July 9 2006, 08:19 pm by timmyjbone |
u never heard this song before? what the hell is wrong with you
-1   July 10 2006, 05:19 am by chiz |
i cant get the 2nd part of the intro.. the switch from 8 to 2

E|-8-----8-2-----2-|
B|---5-------3-----|
G|-----5-------2---|
D|-5-------4-------|
A|-----------------|

can someone pls help me? ive been listening to the song so many times.. but still i cant get it.. it sounds awful..
-2   July 11 2006, 03:56 am by ceo |
hi can any plez tell me how to set my amp so it can sound right like they play it thanks????
-2   July 14 2006, 06:54 am by _AndY |
so he's copied and pasted about 7 different versions of the song from different sites into one... and is being congratulated for it? pff
-2   July 14 2006, 11:24 am by sandrabbit |
Wow Andy get a life. Where are your tabs huh...?
-1   July 17 2006, 12:36 pm by MiTtMatt0113 |
Awsome Goddamn tab.dont listen to these dipshits giving you dumb dipshit negative comments on this amazingly amazing tab. And even if you did copy and paste or Whatever who the **** cares?? these other losers giving you crap probally dont know how to copy and paste. And anyway you made this tab i say rock on dude. Great job.
-1   July 17 2006, 09:43 pm by guitarbabe90 |
this tab rocks and i cant find anything wrong with it it sounds perfect like it was submitted by jimmy page himself which i doubt but its awesome that you had enough time to enter it into the computer...im such a slow typer that would have taken a week or more to type all that...lol just as long to print it out
-1   July 17 2006, 09:49 pm by guitarbabe90 |
btw is there anyone who can actually play this all the way through without screwing up...its so hard, its taking me forever to learn it
-1   July 18 2006, 01:57 pm by thewhite549 |
great song and good tab

www.freewebs.com/brokenboysoldiers
-1   July 18 2006, 02:07 pm by benjo01 |
wow......thats all i cansay
-1   July 18 2006, 06:01 pm by abyssofwoe |
He got this tab from a magazine.
I've seen the exact transcript.

But-- you somehow forgot some of the tab in places.
4 stars.
-1   July 19 2006, 05:04 pm by jimihendrixfan |
GREAT TAB. this sounds perfect, what magazine do you think he got this from, "abysoofwoe"? niceeeeee.
-1   July 20 2006, 06:40 pm by Zeppelin/DC 56 |
goooooooooooooooooooooooooooooooooood taaaaaaaaaaaaaaaaaaaab
-2   July 20 2006, 07:04 pm by ExODuS_fR3aK |
this tab sucks
-1   July 20 2006, 07:06 pm by ExODuS_fR3aK |
lol just messing. this is perfect. five stars
-1   July 20 2006, 11:35 pm by special2 |
I envy you.
-1   July 22 2006, 09:42 am by Mr.MAgPiE |
what a ****ing amazing tab
-1   July 22 2006, 04:41 pm by Daniel Pearce |
Special2 sed:

I envey U.

Me: Same here mate - u've tuken up all this time and effort 2 produce 1 of the best artist's that's ever lived. I've herd rumourz dat u got this from a magazine - but who cares! Perfect dude.

-1   July 23 2006, 03:51 pm by guitarbabe90 |
the magazine is guitar world right?...but you never know, the magazine could have stolen this tab :) instead of the other way around... but still this guy or girl w/e took the time to put it in here
-1   July 23 2006, 11:47 pm by bpgoalie24 |
Great tab, it sounds great
-1   July 24 2006, 11:41 am by 595Metallica595 |
woah, this has got to be the most popular tab in the history of man... great job btw
-1   July 24 2006, 09:19 pm by LaGrange |
i love this song, its perfect, and that idiot who cant spell zeppelin right is just stupid for making himself look dumb.
July 24 2006, 09:22 pm by chocobo_druid |
yeah i agree with lagrange and for further notice all you dum asses the bands name is spelled Led Zeppelin not Led Zepplin gah ****ing idiots
-1   July 26 2006, 03:31 pm by harD_Rokr |
all of you are ****in idiots the person who wrote this is ****ing good probably better than any other idiot on here and if there are minor incorrections o ****ing well deal with it you giant pansies good tab man
-1   July 26 2006, 04:55 pm by green_rox |
its copied from the official tab book.... o well its still good. make that great. just one thing: you forgot in the intro

-3-----3-2-2-2-
---0-------3-3-
-----0-----2-2-
-------0---0-0-
---------------
---------------


at the end of the third line. you have part of it, but forgot the rest. its important
-1   July 26 2006, 11:39 pm by Miss_Plant |
this is so ****ing amazing! EXCELLENT WORK! KEEP IT UP! i love you!
-1   July 29 2006, 03:05 pm by anteh_ |
awesome !
-1   July 30 2006, 06:35 am by brokenunder |
This is probably one of the best tabs.............ever!this tab is awesome and it was y dad wo got me into led zep!rock on dude!
August 2 2006, 12:16 am by FakinHi |
Some parts are a total bull in this tab, like the end of the first section right before the solo starts. that 2 lines of tab is TOTALLY copied from this other song in the Acoustic Guitar Bible. I'm too lazy to find it, but i've played it a few times.. oh yah, it's prolly Iris by the Goo Goo Dolls. I'm startin' to doubt if this tab isn't ENTIRELY copied from somewhere, but some of the stuff is genuine. But, it's good to see this wonderful song up in the internet. I don't care if it's 100% copied coz' it's so good, and it's gotta be shared with everyone. JIMMY PAGE!!!!!!!!! YAHHHHHHHHH BABE!
-1   August 2 2006, 12:40 am by FakinHi |
Man, a few comments up this one by Green_rox.. not to be rude or anything dude, but are u a total bigot? If you've the offical tab the how could u supply the wrong shit. Do you ever listen to the CD when you play this song? If you haven't done so, then please try. for all those who are still tryin' to figure out what the missing measure is, just look down the tab and listen to the music. It's actually written like this, but it's sorta wrong, but it's got all the stuff in it, so it's all good. it goes like this in the tab: E---------2-----2-|-0-----0---------------|---------3-----3-|-3^2-2-2-------|
B-------1---3-----|---1----1--0-1---------|-1---1-1---0-----|-3---3-3-------|
G-----0-------2---|-----2---------2-------|---0-0-------0---|-2-----2-------|
D---2-----0-------|-3---------------------|-----2-----------|-0-----0-------|
A-3---------------|-----------0------0-2--|-3---------------|-----------0-2-|
E-----------------|-----------------------|---------3-------|---------------|

it's at the last measure, but i like it to play it this way, and it sounds more accurate in my opinion:
E 3^2(full off)2 2 ( hold the last chord for 2 beats since the time
B 3 3 is 4/4. Oh and btw, strike the first note: 3
G 2 really hard before pullin' off, you'll hear it
D (0) played like that too.)
A
E
-1   August 2 2006, 12:43 am by FakinHi |
E3^2-2-2-------|
B----3-3-------|
G----- 2-------|
D-----(0)------|
A|---------0-2-|
E-------|------|

My bad... it wasn't clear..
-2   August 3 2006, 09:37 am by BlackReaper123 |
hu givs a #### if its copied its rite it sounds good be thankfull that it was easy 2 find awsum job m8
-1   August 4 2006, 08:12 am by rockrock's |
thnx for the main idea of the intro but it's wrong, i didn't tried the other parts of the song, the hammer on comes much later.

this hammer on comes much later!!!
\
E-------0-2-----2-|-0-----0----------|---------3-----3-|
B-----------3-----|---1-----0h1------|-1-----1---0-----|
G-----0-------2---|-----2-------2----|---0---------0---|
D---2-----0-------|-3----------------|-----2-----------|
A-3---------------|---------0----0-2-|-3---------------|
E-----------------|------------------|---------3-------|

but most of the intro is right so thanx

but why are al these dude's saying that it's perfect??? i only play guitar for a year and even i see that it's wrong???:S

de ballen!
-1   August 4 2006, 07:17 pm by AbackCinDblackC |
rockrock's ur a retard its perfect

nice tab man
-1   August 6 2006, 02:02 pm by Metalmaster61 |
this tab f*ckin rules!
-1   August 8 2006, 04:53 am by proguitarist101 |
This tab is 100% correct and its amazing! awesome job!!!! 5 stars
-1   August 9 2006, 05:44 pm by Skynyrdman16 |
this tab is awsome
-1   August 12 2006, 02:37 pm by Guitaristonfire |
rockrock, piece of advice, check your eyesight or sell your guitar cause this song is perfect
-1   August 13 2006, 06:25 am by rokkid69 |
gd job boyo
-1   August 15 2006, 09:16 am by arun bhargava |
hi tabs man u rock!!!
-1   August 15 2006, 03:23 pm by redhed |
straight from the book?
-2   August 15 2006, 05:17 pm by greendayfan3358 |
good tab, but this song is so boring and sucks in my opinion.
-1   August 15 2006, 06:22 pm by shartface |
this song is an amazing work of art
-1   August 16 2006, 11:35 pm by josephmaio123 |
This is the best tab my eyes have ever seen. Whoever wrote this I pray to them in hopes that they tab another great tab like this one. Thank you very much for this tab!!!
-1   August 17 2006, 12:02 pm by benjo01 |
it is spelled led zeppelin just so you know....v good tab
-1   August 17 2006, 12:45 pm by Metallica2006 |
Very awesome tab....but its zeppelin :) but i dont really care..best tab ive seen on this site...im kind of new at guitar ive only been playing like 3-4 months and th is is first whole song ive learned ..and it was by this tab so thx.
-1   August 18 2006, 06:57 pm by greendayfan3358 |
yah im just playing i don't like this song, but it takes a lot of talent to make it and i appreciate it
-1   August 18 2006, 06:57 pm by greendayfan3358 |
wel i respect it
-1   August 18 2006, 10:28 pm by guitarfreak1270 |
1025 stars
-1   August 20 2006, 03:36 pm by guitarman977 |
****ing awesome tab!!! got 2 be the best tab on the site. who cares if its from the book youve put the time and effort into puting it on the site=)make some more sweet tabs dude. i think this is the best song ever.
-1   August 21 2006, 05:59 pm by mcl guitar |
sweet god it is ****ing hard! 5 stars
-1   August 22 2006, 12:50 am by Zeppelin_101 |
wow,i've never seen this many ratings!! i play the solo a bit differently, but it sounds the exact same...great tab, and a great song
-1   August 22 2006, 05:48 pm by Sabbath25 |
i cant belive someone would spend so much time making a tab but DAMN its friken accurate
-1   August 23 2006, 09:46 pm by guitardude1039 |
u suck ^^^

anyway this tab kick ass - great job man!
+1   August 24 2006, 05:07 pm by KeViNp |
All with it.
Do better fenderstrat and then you can say this sucks.

One thing I found missing in the intro was the 11th measure. There should be a part that goes like
|3p2-2-2-
|----3-3-
|----2-2-
|0---0-0-
|--------
|--------
-1   August 24 2006, 05:08 pm by KeViNp |
And FS I don't think they'll be accepting anymore tabs for this anytime soon.
-1   August 25 2006, 11:03 am by MDude911 |
thats hard to play
-1   August 25 2006, 11:40 am by MissMuffy |
what if the person who tabbed this was a girl?? how do you know it's a guy??
-1   August 26 2006, 11:56 pm by KeViNp |
Does it mater too much muff?
Doesn't really matter except the fact this tab kicks major ***
-1   August 27 2006, 12:02 pm by Bassman1993 |
great
-1   August 29 2006, 12:25 am by Davito3 |
I couldnt think of any better tab for this. this is some serious work, Jimmy Page would be proud, and slightly pissed about the fact that it takes 13 pages to print out.


but still AMAZING TAB!!!!!!!!!!!!!!!!!!!


i give it 6 out of five stars.
-1   August 30 2006, 08:00 am by turnfoot |
man... i can't believe someone could actually make a tab this accurate!
-1   August 30 2006, 06:42 pm by spymaster |
compared with the sheet music. correct besides a piece in the beginning missing...a true musician would know what to play there because it is also tabbed up later in the song. nice job on helping all of the musicians in need of the stairway tab.
-1   August 30 2006, 09:56 pm by ace445 |
one of the best tabs i EVER seen for ne song
-1   September 1 2006, 12:41 pm by under8_6 |
this tab.... its so amzing. i love you who ever you r
-1   September 2 2006, 04:01 pm by e_man |
sweeeeeeeeeet
-1   September 3 2006, 09:42 am by fatfree0 |
this is better than the version in the book, this has a solo!
-1   September 7 2006, 08:59 pm by mexican dreamer |
ladies stop fighting!!!and about the tab, its great man, theres nothing else to say. awesome
-1   September 7 2006, 09:59 pm by guitarr playa |
this is an amazing tab!!! i cant believe that someone could do a tab so well... whenever i have played a tab i have always changed something but this is perfect.
5 stars for sure!
-4   September 8 2006, 11:51 am by Vedder |
straight outta the tab book.....
+3   September 9 2006, 02:17 am by Briscoe06 |
IF VEDDER HAS THE BOOK WHY IS HE LOOKING AT THE TABS
-1   September 10 2006, 10:05 am by uncballer11 |
umm this tab isnt hard at all! ****ing sweet. i cant memorize all this though so i give up.
-1   September 11 2006, 03:34 pm by gallagher2006 |
lol i feel sorry for the poor c.u.n.t that didnt log in when he send this tab lol
-1   September 11 2006, 08:01 pm by Jon101791 |
not much of a zeppelin fan more into ozzy,hendrix,roses and all them but this is an accurate tab very good job
-1   September 11 2006, 09:16 pm by heavenfeather |
sweet
-1   September 14 2006, 10:15 pm by vulcan53 |
great tab, but the words are kind of f***ed up.
-2   September 15 2006, 07:00 pm by KeViNp |
Jsut noticed there are satanic messages in the song
+2   September 15 2006, 07:05 pm by British Josh |
an amazing tab. to all you dicks who think this is bad, you are ****ing retarded. this is an amazing piece of tablature and he put effort into it
-1   September 15 2006, 07:52 pm by hendrixyongpage |
this is one of the best tabs i have ever seen it took me a while to find a good for this
-1   September 16 2006, 01:53 pm by yosefgamble |
This is the best tab on the whole site.
-1   September 19 2006, 05:58 pm by Peeex |
This must be an extremely accurate and amazingly written tab seeing as it has 475+ comments and 2250+ votes (avg 5star)! GRATZ!
-1   September 20 2006, 10:12 am by bgarnham |
i think this tab if its not copied was do with a program because is perfect and someone know the name of the program please sent it to me benjagarnham@gmail.com
-1   September 20 2006, 11:08 am by tc_badger |
this is amazing!
-1   September 20 2006, 06:02 pm by Vedder |
[09/09/2006 - 02:17 am] by Briscoe06 : |
IF VEDDER HAS THE BOOK WHY IS HE LOOKING AT THE TABS
i don't have the tab book *******, my buddy does and i've memorized this one pretty good, then i saw his book and noticed they are the same.
-1   September 20 2006, 11:29 pm by Crutchy |
theres satanic messages but theyre not real. some nerds were just ****ing around with the song and tried makin some thing
September 21 2006, 08:02 am by snoop33 |
intro is not complte
-1   September 26 2006, 06:15 pm by KeViNp |
snoop
helpful advice














scroll down
September 30 2006, 03:20 pm by shmoodles |
THIS TAB SUCKS! is wot i would say if it sucked...
BUT IT RULES!!!!!!!!!
-1   September 30 2006, 06:54 pm by Metal NewKid |
not really sure if you made this, but excellent tab anyway
-2   October 1 2006, 10:24 am by RHCP_rule! |
Great!
October 2 2006, 01:22 pm by Electra Guitar |
this is soooo good everytime i play this everyone is all man you r sooo good. thank you!!!
October 3 2006, 02:22 am by mattman25 |
this is probaly the best tab on this site
October 5 2006, 04:42 pm by slashrules!!! |
this tab has the most comments and votes than any other tab on the site
October 5 2006, 04:44 pm by slashrules!!! |
wow this tab ia awesome. well done man.
-1   October 6 2006, 02:58 pm by ACHILLESj87 |
wow, i tip my hat to you man, this is so ****ing long, you stuck it out, good job
-1   October 8 2006, 01:55 am by page33 |
Awesome tab bro, i wouldn't have been able to stay focused on this long enough. BTW, Jimmy Page f****** rocks.
-1   October 8 2006, 11:09 am by i<3myteli |
this is a pretty good tab out of the book or not lots of time to tab it. but it is over rated, its pretty much the perfect song for beginners to learn. no doubt though led zeppelin rules and jimmy page is one of my favorite guitarists, for anybody interested get some dvds and watch him play live. everyone could learn something.
-1   October 9 2006, 09:24 am by Chuck Tuck |
wow, this is amazing, very detailed and precise, thanks man
-1   October 20 2006, 05:45 pm by samerika |
WTf ? why would someone submit such a great tab as this one but without registering !
-1   October 22 2006, 12:26 pm by eskimo_rage |
pretty good but some parts are off
-1   October 22 2006, 03:14 pm by samerika |
Mh..... i think that there is some really important pull off missing besides of that its good, ah and im no sure about that hammer in the first part of the intro
-1   October 23 2006, 01:02 pm by Brn2sk8 |
Good tab, exellent song to play... Sounds very good... Me like it :):):):)
-1   October 23 2006, 05:00 pm by 00_matt |
best tab on this site hands down :) great job man !
October 26 2006, 01:19 pm by yumoses |
great tab...good job :D:D.
-1   October 26 2006, 01:56 pm by Boston098 |
i dont get this im sort of new but how you you play this

example

---7--
------
---6--

how can you play 2 notes at the same time with out touching the string under it? or is this strumming?
October 26 2006, 04:04 pm by hendrixyongpage |
Thank you i now have 15 pages of led zeppelin to go over and boston098 you mute the strings in between either that or its finger picking
+1   October 28 2006, 11:33 am by chunk jr. |
you retard you wrote it wrong to


great tab but your missing the hammeron at the end of the intro
October 28 2006, 02:11 pm by BadReligionNofx |
Thanks a lot for taking the time to type out such an extensive tab. I just got a new Takamine guitar and this song sound fricken sweet on it! I gotta learn how to finger pick though cuz right now i use a pick and I can't play the bass notes. Thx again
-1   October 29 2006, 08:04 pm by guitarpro6969 |
dude, i never thought that i see the day, ive spent almost 5 months tryn to get this whole sound, and here it is right in front of me. this is a perfect tab. great job, i mean it. this tab is a 5 threw and threw. and for all you idiots out there that dont know how to play
---7---
-------
---6---

you pic it you idiots, i mean if you cant figure that out then you shouldnt have a guitar in the first place. noobs
October 31 2006, 09:49 am by irock+roll |
awesome tab 100% perfect and if it is copywrited, well are'nt all these tabs?
+1   November 1 2006, 07:52 am by haydenriach |
Perfect, but Led Zeppeling? Its Zeppelin no G dude
November 1 2006, 08:45 pm by telecaster92 |
GREAT TAB DUDE!!!
November 4 2006, 05:32 pm by fenderlover |
whats the fingering for the d/f# chord?
the
2
3 chord
2
4

November 5 2006, 06:05 pm by Justin aus |
this is an awsome tab man
ignore all the negative people who don't appreciate how much time has been put into this tab
Led Zep all the way
November 5 2006, 06:41 pm by piza pokr |
bad ass dude!!!!!!!!!!!!!
November 10 2006, 01:26 am by darkcontender |
O_O

it will take me forever to learn this f*cking song.. LOL
awesome tab..ur a legend.
November 10 2006, 01:53 am by metallica100 |
------
--3---
--0---
--0---
--2---
------wot is this chord?
November 11 2006, 12:36 am by orange_juice |
wow.. stairway is the most amazing song ever and this tab is really good.. lots of votes.
November 11 2006, 08:57 am by keleigh4life |
lengend this ia awsom dude
November 11 2006, 01:21 pm by mrs. jimmy page |
awesum tab but... when u play
|---------
|--0-1-1-- it just doesnt seen right... i play it like this...
|--0-2-2--
|--------- |---------
|--2-0-0-- |--0-1-1--
|--------- |--0-2-2--
|--0-2-2--
|---------
|--------- I think it sounds more like when they play it on the CD... otherwise i think it is one of the best tabs i have ever seen for stairway to heaven!
November 11 2006, 01:25 pm by mrs. jimmy page |
crap it didnt come out... i play it like this... (ignore what i put up there)
|---------
|--0-1-1--
|--0-2-2--
|--0-2-2--

but you play it like this:
|--0-1-1--
|--0-2-2--
|---------
|--2-0-0--

but i think that the way i play it sounds more like how they play it on the cd. try it! otherwise ur tab is the best i've seen in a long time! great job!
November 11 2006, 11:41 pm by MaTt0o1 |
i just thort id say umtin but i no ppl will prob say im a dumb ass but if evry1 hasnt noticed this tab is missing parts at the start of the tab in the intro its not that hard 2 miss ppl but good work on typing it up i no tabs take ages typing up so this must have taken ages
good work
November 12 2006, 03:29 am by patmann3 |
this tab rocks!!!
November 13 2006, 10:16 pm by JordanFlayer |
the solo chords are Am Am/G FtypeII
x02210 3x2210 133210
T
November 16 2006, 06:03 am by Rassy182 |
nice!!!! 5 stars from me
November 17 2006, 11:39 am by hotshot_666 |
awsome tab. some people need to stop posting stupid shit
November 18 2006, 12:51 am by Greenday389 |
Asome!
November 22 2006, 09:02 am by guitarman547 |
the best tab for stairway to heaven ive seen
November 22 2006, 02:15 pm by simmons100 |
love it
-1   November 22 2006, 03:51 pm by aliceinchains42 |
You copied this from the jimmy page sheet music, cuz i took the sheet music and compared it to yours, and its the same. I'll rate it 5 stars, but next time, give credit to the tab's author.
November 23 2006, 08:47 pm by mracornbuddy |
very nice, it must have taken forever when tabbing it out, even if you did copy it it still would have taken eternity. i've just never heard of "led zeppeling" but the led zeppelin tab is good. lol
November 24 2006, 11:10 am by Mcassidy42 |
Holy shatbags!
November 26 2006, 01:00 pm by Warlock2006 |
VERY VERY NICE :D
November 27 2006, 12:07 pm by kinkyguitarist |
e|---------| sounds better than e|---------|
B|---------| B|-0-1-1---|
G|-0-2-2---| G|-0-2-2---|
D|---------| D|---------|
A|-2-0-0---| A|-2-0-0---|
E|---------| E|---------|

Anyways great tab m8... really
November 27 2006, 02:31 pm by fede01_8 |
Oh my god!! The First comment was exactly 5 years ago today
November 27 2006, 04:20 pm by Spiritweaver |
^ lol that's pretty cool. Sweet tab by the way, what a great song.
+3   November 29 2006, 10:19 pm by ColinGS |
Ok, the tab probably isn't PERFECT by definition, but if no one can give a better part that everyone agrees on then its PERFECT ENOUGH LOL
My only questions are these...
Is it played on 2 guitars or is it over-dubbed in the studio? If so what kind of guitars are used? And if it IS a 12 string than that would explain why some retards would be complaining about it not sounding right!
In the first version is part of the intro missing or played by another guitar. If it is played by another guitar then its not missing. =)
Also, which version is the correct, and complete, and correctly ordered version, and which is the exact album version (Not the alternate version) I'd love to know which one to play LOL!
---------------------------------------------------------------------
Here is some advice for you novices out there as well (I figure if I ask so much i might as well contribute something). I actually gave up on this tab a while ago when i was learning guitar because i was stuck on the same chord at the end of the strumming parts. The chord which is the same as a barred F Maj, or F Maj7(or whatever its technical name is) except with the first string played open IS possible to be played with practice! It may be obvious to some of you but wasn't to me and probably isn't to many others out there but this is how you play it...
- Fret the 2nd fret of the second string (B) with you 1st finger and make sure its with the finger tip only!(so that you don't deaden the first string(e)!
- Use your 2nd finger to fret the 2nd fret of the third string(G)
- Use your 4th finger to fret the 3rd fret of the fourth string(D)
- Use your 3rd finger to fret the 3rd fret of the fifth string(A)
- Now for the tricky part. You curl your thumb around the neck so that the first section of it hangs down the fretboard and over the 1st fret of the sixth string(E). This requires you to reposition your arm in a number of ways. You can pull you arm up, squeeze it flat to your ribs, and try to pull back with your hand and pinch the string in front of the fret with the pad or your thumb, or start with ur arm in normal position, lay your thumb over, pinch, then bring your arm away from your body and up. Either way you will be required to roll your wrist outward and up to change the position of your thumb and use the neck or your guitar for leverage to get a firm grip with no fret buzz.

Now you can play this line:
----------------|--------------------|----------------0-|--0------|---------|
-------1------3-|-0h1---------1------|-------1--------1-|--1------|----1---3|
-----0------0---|-----2-----2--------|-----0-------0--2-|--2------|---0---0-|
---2------0-----|---------2----------|---2-------0----3-|--2------|--2---0--|
-3------2-------|-------0------0--2--|-3-------2------3-|--0--0-2-|-3---2---|
----------------|--------------------|----------------1-|---------|---------|
thoughts I smoke through voices of looking [goto %]
new day those who forests will laugh - ter

Sorry for the lengthy comment but if you could play that part before, you should be able to figure it out now!
November 29 2006, 10:24 pm by ColinGS |
on the first instruction on how to play the chord, I meant to type "Fret the 1st fret of the second string(B) with your first finger tip only!(so that you don't deaden the first string(e)!
December 1 2006, 11:35 am by \,.robbie.,/ |
why are there about 5 different vesions on one page?
i don't realy get it
great tab though
December 2 2006, 05:58 am by sundancewar |
this roks
+4   December 3 2006, 07:48 am by redmanmarshall |
I have a problem in the intro, maybe i'm just playing it wrong but i would be grateful for any help.

On this bit:

E-------0-2-----2-|-0-----0----------|-------- -3-----3-|
B-----------3-----|---1-----0h1------|-1-----1 ---0-----|
G-----0-------2---|-----2-------2----|---0---- -----0---|
D---2-----0-------|-3----------------|-----2-- ---------|
A-3---------------|---------0----0-2-|-3------ ---------|
E-----------------|------------------|-------- -3-------|

Is there something missing in the bit i've spaced out? Or am I just playing it wrong?
December 3 2006, 08:21 pm by hendrixyongpage |
Anyone have a good amp setting for solo? if so please post.
December 5 2006, 04:30 pm by OFFtheFlag |
Really good tab...maybe the best one of this website.
December 9 2006, 10:54 am by bgarnham |
this is played with a pick or is a finger-picking?
December 9 2006, 05:11 pm by Guitar2theface |
I don't even have patience to play all this (played like 3/4). I congratulate you on writing such a huge ass tab that I don't feel like playing XD.
December 10 2006, 11:56 am by SikkiNixx |
Im surprised no ****er has claimed to be the tabber yet..
-1   December 11 2006, 04:22 pm by fornofftogo |
yes thank you for someone finally noticeing it not ZEPPLING!!!! ZEPPELIN!!! dumbass. but it is a good tab
+1   December 12 2006, 12:00 pm by wenknutz |
I'm not sure if this has been posted before, as I did not read through all 500+ comments (which is quite amazing), but he does leave out a section in the third line of the intro (where there is an obvious gap). It's not hard to figure out. Great tab by the way, also identical to one i found in a book at the library. Considering the amount of work put in I think I'll let the typo at the beginning slide.


E|-3^2-2-2-------|
B|-3---3-3-------|
G|-2-----2-------|
D|-0-----0-------|
A|-----------0-2-|
E|---------------|
December 12 2006, 12:14 pm by wenknutz |
ha, apparently I didn't look down far enough. chords and everything, that's great!
+1   December 13 2006, 07:08 pm by Strat92 |
jk...awesome tab man

and all you people need to shut up about the "Zeppeling" thing, its a typo...GET OVER IT
+1   December 13 2006, 09:40 pm by kmilongo |
i'm laughing so hard reading all this posts... LOL!
December 16 2006, 08:45 am by Zhailzur |
Great tab man!
Five stars!!
December 19 2006, 03:22 pm by guitardude1039 |
5 Star for U! TYPO PEOPLE TYPO!!!!! ZEPPELING/ZEPPELIN who gives a dogs ass?
December 22 2006, 12:48 pm by Mistermark |
playing along with the CD, i think its tuned up half a step... otherwise, AWESOMELY accurate!! thanks man.
December 24 2006, 11:38 am by orange_juice |
YAY!!! TOMORROW IS CHRISTMAS!!! oh ya AMAZING tab
December 24 2006, 04:26 pm by Zeppelin/DC 56 |
nice
December 25 2006, 07:20 pm by fornofftogo |
people we need to vote more for stairway. so it can get back up to #1!!!!!
December 27 2006, 04:29 am by mostguitar |
Awesome tabs man!!!!!! This woulda taken ages, its also funny how people are leaving comments all the way from the beggining up until now. That shows its an AWESOME TAB!!! Now i can show my uncle who always asks me if i can play this song and i cant, NOW I CAN, YAY!!!
-1   December 27 2006, 01:02 pm by fornofftogo |
finally stairway is back at #1!!!! suck it jingle bells!!!
December 27 2006, 08:26 pm by metal_shredder |
wow
December 27 2006, 08:58 pm by Gunners Rock |
Hey this tab is awsome.
good job.
Go Led Zeppelin.
=)
December 30 2006, 02:58 pm by rford40 |
great tab but its ZEPPELIN not ZEPPELING lol 5 stars
December 31 2006, 01:14 pm by orange_juice |
omg give the dude a break he made a little typo.. the tab is amazing
-1   December 31 2006, 08:49 pm by Witchhazel |
lol zepping next typo will be zeplane or somethin stupid like that.
December 31 2006, 10:30 pm by fozy14 |
1 word people............awsome.......completely awsome. give the guy credit. he took time out of his life to do such an amazing tab and all yall do is get on him because of a spelling error. cmon now.
5 stars.
January 1 2007, 07:09 pm by bropark08 |
best..tab..ever...thank you soooo much. i love you whoever tabbed this.
January 1 2007, 09:29 pm by Acousticwannab |
Does Jimmy Page have a classical guitar background???
Because its either that orhe is the guitar messiah from God
January 5 2007, 08:42 am by arun bhargava |
good work man.
awesome!!!
January 6 2007, 03:00 pm by pittpenguins |
great tab 5 stars man!!!
January 7 2007, 01:28 am by guitarman547 |
I MEAN SERIOUSLY THIS TAB FLIPPIN ROCKS
January 7 2007, 01:29 am by guitarman547 |
THIS MUST HAVE TAKEN YOU FOREVER.

KEEP ON TABBING
January 7 2007, 04:10 pm by Richardt |
which version is the best that he gives us?
January 8 2007, 11:56 am by hendrixyongpage |
Raining blood are you stupid or something?
They do that so you can play and you can just remember those certain
words so you know were you are
jeez
January 10 2007, 11:27 pm by ericgentz |
Man kick ass.
January 12 2007, 07:26 am by jakobi |
a pease in the intro is missing
+2   January 12 2007, 07:31 am by jakobi |
what happand to this bar???

E|-3p2-2-2------
B|-3---3-3------
G|-2---2-3------
D|-0------------
A|----------0-2-
E|--------------
January 14 2007, 10:31 pm by Lukifer1113 |
Comment 607, this tab is over 5 years old and people are still commenting it, nice
January 15 2007, 09:08 pm by guitarman547 |
THis tab freakin rocks and anyone who says it sucks should just shut up.

ZEPPELIN ROCKS!!!!!!!!!!!!
January 15 2007, 10:14 pm by shellshock1911 |
2550 ratings, i thought M.O.P with 505 was the record on UG, but goly this has gotta be the record
January 16 2007, 11:12 am by jay-P9 |
Mucho respect for a f*****g kick ass tab Man, its a pity youre unknown. Serious tab here, defo deserves some form of applause. Im not that big in2 zepplin but i know what good classic rock is and this defines it, capped by this 10 star effort, Oh and cheers, it helped me alot to start out, even tho its not realy a starter song, but it got me goin and over the last few months, my fingers have properly deloped cos of this song. Top notch. Nice one
-3   January 17 2007, 08:30 pm by guitar_god91 |
close as hell but not money yet on the third line there a slide
V ^
E-------0-2-----2-|-0-----0----------|---------3-------]-3/2-2-2
B-----------3-----|---1-----0h1------|-1-----1---0-----|-----3-3
G-----0-------2---|-----2-------2----|---0---------0---|-----2-2
D---2-----0-------|-3----------------|-----2-----------|-----0-0
A-3---------------|---------0----0-2-|-3---------------|-----0-0
0-----------------|------------------|---------3-------|-------
January 17 2007, 09:50 pm by Kellessar |
Wow, great tab. ^ years and still getting posts. Keep it up... now all i have left to do is remember 8 minutes of picking...
January 17 2007, 09:50 pm by Kellessar |
I meant 6 not ^
January 19 2007, 09:11 pm by eltonjohn69 |
i heard and played the song, a bit boring for my taste, but the tab is pretty simple to play. simplicity and accuracy is how i rate these things. 5 stars
January 24 2007, 12:37 pm by axe_man |
dude id lik 2 b ur lik 600th n wtever worshiper ur probs bored of it by now lol
January 25 2007, 02:12 pm by Bassman1993 |
GREAT TAB JIMMY PAGE RULES!!!!!!!!!!!!!!!!
January 25 2007, 05:27 pm by YDudeG |
WTG sweet tab 100% correct
January 26 2007, 10:44 am by bigrob76 |
Even if it is wrong they never play the same version twice.. theres always a little twist they throw in live..
+1   January 26 2007, 09:00 pm by Zeppelin_31 |
A few comments here:

1: It's Led Zeppelin, not Led Zeppeling, moron!
2: In the intro, there should be a G chord twist to D that you forgot. It goes like this:

e|-3-----3-3-h/2-2-2-|
B|---0-----------3-3-|
G|-----0---------2-2-|
D|-------0-0-----0-0-|
A|-------------------|
E|-3-----------------|

3: It looks like you tabbed it right from the book. It's really accurate. I don't know anyone who would put such time and care into a tab. Rock on, man!
January 27 2007, 07:25 am by Zeppelin_31 |
Just everything is perfect except that one part
January 27 2007, 09:02 am by stef123 |
dont listen 2 them perfect tab m8
January 27 2007, 02:05 pm by Zanther |
NO STAIRWAY
*gasp*
Stairway, Denied!
January 28 2007, 04:00 pm by Richardt |
i give this 5 backshots out of 5
January 29 2007, 01:44 pm by slash rcks |
Perfection at its finest
January 30 2007, 03:17 pm by dimebagrocks! |
wow this tab is so good it is amazing!
January 30 2007, 06:33 pm by Richardt |
lol, this tab is awesome
January 31 2007, 10:26 pm by TappingGuitar |
---15b17b15p13----
help, please! What does this mean?
January 31 2007, 10:27 pm by TappingGuitar |
oooooooooh
i got it. 15p13 not 15b13 lol
February 4 2007, 02:07 am by theguitarinator |
this guy would have a lot of points if he was registered lol
February 4 2007, 08:50 am by hotchik |
omg this tab rox even if i tried i wouldn't be able to find anything wrong with it u kick ass!!!!!
x
-2   February 6 2007, 04:04 pm by Stampy_t |
Awsome tab !!! - 5 Stars
-3   February 6 2007, 06:59 pm by leSRVpaul1990 |

SMALL CORRECTIONS/CLARIFICATIONS
One very very small correction that i feel needs to be made
in the verses between the arpeggiated C-G-Am-C-G-F-Am section and the strumming section there's a little bridge line (i hope that's a good enough explanation, i'll tab it out just in case.) There's a much easier way of playing it. here's how it's tabbed:

e|-----------------0--|-0-Bridge-|-----3-------3---|--3-3---------|
B|-------1---------1--|-1-Starts-|---5-------3---4-|--1-1-etc...--|
G|-----0--------0--2--|-2-Here---|-5-----5-4-----^-|--2-2---------|
D|---2--------0----3--|-2--vv----|------------Ends-|--2-2---------|
A|-3--------2------3--|-0---0-2--|------------Here-|0-0-0---------|
E|-----------------1--|----------|-----------------|--------------|

Anyways it's an important eargrabbing bridge because Page overdubbed a couple of times playing it, so it's got a nice ringing sound to it. First off, the first two notes are the correct notes (A & B) but they are an octave too low. And also the riff is played out of the fifth instead of using open strings which is easier. and i don't know where that D# (second string 4th fret) at the end came from. Wrong note completely. Here's how i play it.

e|-----------------0--|-0--------|---0-3-------3--|--3-3---------|
B|-------1---------1--|-1-----0--|-1-----1-0-3---0|--1-1-etc...--|
G|-----0--------0--2--|-2---2----|----------------|--2-2---------|
D|---2--------0----3--|-2--------|----------------|--2-2---------|
A|-3--------2------3--|-0---0-2--|----------------|0-0-0---------|
E|-----------------1--|----------|----------------|--------------|

I think that's the easiest way to play the riff. But if you've learned it and are accustom to playing at the fifth fret then you may like to play it like this:

e|-----------------0--|-0--------|-----3-------3--|--3-3---------|
B|-------1---------1--|-1--------|---5-------3---0|--1-1-etc...--|
G|-----0--------0--2--|-2---2-4--|-5-----5-4------|--2-2---------|
D|---2--------0----3--|-2--------|----------------|--2-2---------|
A|-3--------2------3--|-0--------|----------------|0-0-0---------|
E|-----------------1--|----------|----------------|--------------|

That's all the same notes, but played just like the original tab. Either way the original is slightly off as i see it.

Also to clear up some questions people have been asking:
There IS a missing part in the intro. But just look four lines down at the end (over "heaven Theres") and you'll find the riff that should be there.

On the recording, Page uses several guitars, overdubbing many parts of the song for emphasis or tone. a 12 string is used for a many of the strumming parts (IE-backing the solo, and in a few others.) For those of you that don't know, all a 12 string does is add doubled notes or octaves for a bigger, more open, impressive tone. anything played on a 12 string can be played exactly the same on a 6 string with little difference. So don't sweat it.

Tabs are meant ONLY AS A GUIDE, and may be more or less specific than necessary at any given place in the song. Beginning players should remember that most bends are whole tone bends, so IF YOU'RE HAVING TROUBLE BENDING THE NOTE PROPERLY SIMPLY PLAY THE NOTE TWO FRETS UP and you'll have it generally correct. For example, where the tab says to play |-8b-|, you can replace it with |-10-|.

Also in this song specifically, Page uses many broken chords.
One person asked what this chord was

|---|
|-3-|
|-0-|
|-0-|
|-2-|
|---|
well it's simply a broken G chord with the G's removed. It's just used because it soulds good. Same with the end of the intro bars.

|-------|
|-0-1-1-|
|-0-2-2-|
|-------|
|-2-0-0-|
|-------|
These are broken down G and Am chords played fingerstyle.

I hope this helps a few people.
-1   February 6 2007, 07:05 pm by leSRVpaul1990 |
Ack, small correction to my own correction =X :

e|-----------------0--|-0--------|---0-3-------3--|--3-3---------|
B|-------1---------1--|-1-----0--|-1-----1-0-3---0|--1-1-etc...--|
G|-----0--------0--2--|-2---2----|----------------|--2-2---------|
D|---2--------0----3--|-2--------|----------------|--2-2---------|
A|-3--------2------3--|-0--------|----------------|0-0-0---------|
E|-----------------1--|----------|----------------|--------------|

There, that's 100% correct. I accidently left in the original A & B on the fifth string in the first post.

February 7 2007, 11:59 am by cockels |
I'm probably the biggest dumbass here.

But my brother plays this song and its 100% correct, and its nothin like this one.

i think the picking in the intro is sorta off. but everything else is right on!! GREAT WORK!!
but 4 stars
February 9 2007, 07:03 am by lazyass |
ps zeppelin rules
February 10 2007, 12:27 pm by stef123 |
oh yeah and good tab
+2   February 15 2007, 11:22 pm by TappingGuitar |
one question: Isnt the solo more likely played like this?

E|-----5---------------------|----8-8-8b--8-5---------8—10p8--------------|
B|-------8p5-----------------|-8b-------------8/10-10--------10p8----8p10~|
G|-7b9-------7p5---7p5-------|------------------------------------10------|
D|---------------7-----7p5---|--------------------------------------------|
A|-------------------------8~|--------------------------------------------|
E|---------------------------|--------------------------------------------|
February 17 2007, 09:55 am by TBP |
good
February 17 2007, 08:18 pm by JimmyP4life |
Great job man Ive played this all teh way through by ear its exactly how i play it Btw TappingGuiatr no it isnt he has it correct
February 18 2007, 03:28 am by ervellsal |
man great job...wat else can i say...Perfection at its best
February 19 2007, 01:46 pm by spader |
ok good tab but i dont get this... i found on that page 3 different tabs... which one is the best? i mean why would u post 3 different tabs on one page???
+1   February 19 2007, 09:47 pm by Metallicaman66 |
WOW! an awesome tab to an awesome song. =)
February 22 2007, 04:50 pm by macvsgp714 |
yo, too bad you're unregestered...cuz you'd get a ton of UG points for this song!! 5 stars anyways though

What are UG points for anyways?
sic tab tho
i owe you big time for this one~~
March 1 2007, 11:03 pm by Fret_7 |
great tab. just had to put down a comment for this legendary tab. 5 stars.
March 3 2007, 12:25 pm by maiden4life |
Good tab Led Zeppelin rocks...ut im mostly into hair metal

WHO REMEBERS HAIRMETAL!!!!!!!
March 4 2007, 11:16 pm by hefalonicle |
if you see this i wanted to see if i put 1 star on here if it would change anything. Its a good tab and so forth just like 600 people said.
March 8 2007, 07:56 pm by t2wksfrm20 |
The dude above me is just jealous because its such a good tab
anyway the tab rocks
March 9 2007, 02:44 am by yo-shiuan |
AWESOME TAB
BEST FRIGGIN TAB EVER!!!!!!
March 10 2007, 12:52 pm by Mein Kampf |
The intro doesn't sound right...
March 10 2007, 12:53 pm by Mein Kampf |
Never mind, I had my guitar tuned wrong. Good tab knuckw
March 11 2007, 09:42 pm by \GuitarHero/ |
I gots a noob question, how do you play this?
|--0--|
|-----|
|-----|
|--3--|
|-----|
|-----|
March 15 2007, 01:44 pm by NickyMan2101 |
Theres a problem at the beginning, when you play the 2 G's, 3rd fret, Thinnest and Thickest string, your supposed to pick the B open than the G and than pick the G (3rd Fret) on the Thinnest E string and hammer it back to the second fret and than a D chord twice, listen to the song. But the guy who made this tab might have hid it in there somewhere but i dont see it. Good tab though...
March 16 2007, 08:20 am by tonyboy_gana |
sooooooooooooo cooooooooooooool
March 18 2007, 07:33 pm by -AshesOfTheWake |
wrong tab from the book
March 19 2007, 06:03 pm by beibitut |
A bit unfinished
March 21 2007, 01:12 am by emperor wurm |
the guy just tab this let me guess an hour a day?with this long tab any one will commit mistakes just imagine typing lines and numbers men thats a headache >>>...anyway good job
March 22 2007, 06:27 pm by LolaCherryCola |
wow guitarhero
u fingerpick. i use me thumb and middle finger.
March 22 2007, 06:32 pm by LolaCherryCola |
and i have a noob question too =)
i must really suck cause it dnt sound like im playing it right is there another guitar? because i dnt know how he makes it sound like that. or i may just be fingering it wrong. page must have 18 fingers!....or i just suck horribly(which i do)
March 23 2007, 05:30 am by guidofawkes7693 |
i think its funny that so many people rated it good, its a mint song, but dont tab it wrong!!
March 25 2007, 12:22 pm by rock50 |
HOW DID U DO THIS
March 29 2007, 01:19 pm by Guitar-Boy-666 |
LolaCherryCola, the song is finger picked, therefore allowing you to play multiple strings/notes at the same time. It's easy.. Great tab too !!1
March 30 2007, 10:09 pm by Hendrix92492 |
u r my saint, ive been lookin for a good stairway 2 heaven tab 4ever! you kick ass, and the tab kicks ass. just keep on keepin on. musta taken u forever tho, thx ne way!
March 31 2007, 10:19 pm by theDfan |
this tab is awesome... i just couldnt play the solo cuz i just started playin and i have an accoustic
April 2 2007, 12:50 pm by wipemybutt816 |
Super accurate, thank you.
April 3 2007, 11:32 pm by Dontbeahata |
great
April 4 2007, 05:47 pm by Richardt |
at what time should we pick up our picks???:S
April 5 2007, 04:20 pm by LolaCherryCola |
i know i have to fingerpick. thats what i do, but it sill doesnt sound quiet right. i might be holding down the wrong chords at a time. (if thta makes any sense)
April 6 2007, 04:45 am by crebeley |
bloody hell how many years did it take him/her 2 write this amazing tab!!!!!!!!
April 7 2007, 06:33 pm by americanreject |
even though it's from the guitar world mag, i still give this guy a thumbs up for sitting down and tabbing it out. great job dude.
April 7 2007, 06:36 pm by americanreject |
oh and you pick up your pick at the end of the intro end. if you have the guitar world issue it tells you to.
April 8 2007, 02:28 pm by bassbizzle |
sweet
April 9 2007, 01:34 am by Gamble0693 |
so many damn comments...eyes hurt. Anyway, sick tab dude, there are a few little minor things but those don't matter. I give you a 10 out of 5 because damn that must have token forever. Oh and anyone who thinks it sucks probably just listens to rap and doesn't appreciate rock and roll. Peace.
April 9 2007, 06:20 pm by MetalBassist93 |
what a beast (wow)
April 10 2007, 05:52 am by tonyboy_gana |
u know the cool part is that the guy/girl made the tab w/ out even registering and to think that he cant make any corrctions w/ it cuz its a 1 take (hes not registered so he cant retab some parts) and its PERFECT!
April 11 2007, 11:04 pm by ptansani |
i think the only person who could tab it better is jimmy page himself. u rock. nice job. ROCK ON!! Led zeppelin lives!!!
April 12 2007, 11:10 am by FleshyLeper2 |
u really dont have to ever put down your picks for all of you that are wondering how to play like
|--0--|
|-----|
|-----|
|--3--|
|-----|
|-----|
or when to pick them up, you can just chicken pick,(hold your pick and use middle finger to pick the other notes that ur pick isnt hitting) or atleast it hink that's what its called.

very good tab by the way, kudos
April 13 2007, 01:47 pm by lowbudgetband |
Holy crap are there enough comments yet? The tab seems right but I don't see why everyone raves about this song so much. it's good but not their best, and there's plenty of better solos out there.
April 13 2007, 08:59 pm by Nileppezdel |
i think this tab is pretty great but i rated it a 4 for a couple of reasons.
on this part:
A|--0-/8-7--|
no one usually picks this up but i think its supposed to be like this, with an extra A note:
G|--2-------|
D|----------|
A|--0-/8-7--|
Also i really think that you should show the strum pattern for the end after the solo. its really important to play that right and get all the hand muting in between down.
Otherwise the solo is pretty good and its a good tab.
April 14 2007, 12:48 pm by chigdig |
My hat goes off to you; GGGGGGGGGGGRRRRRRRRRRRRRRRREEEEEEEEEEEEEEEEEEAAAAAAAAAAAAAAATTTTTTTTTTT tab!!!!
April 15 2007, 10:00 pm by VoRzCeNt |
Everyone thinks that it's automatically 100% correct because it was in a magazine... I looked in a guitar book a while ago that said he started in an ascending A minor chord (and believe it or not, that didn't sound too off). Just thought I'd point out print isn't always right. I wonder if whatever unregistered poster tabbed this knows it's getting 5000+ hits a day.
April 17 2007, 05:58 pm by thecopy |
Very nice tab! I've learnt it all and it sounds perfect to me! :D Thanks very much!
April 17 2007, 10:22 pm by Fernandinho |
Great Tab! It's a 100% correct!!!
April 18 2007, 02:51 am by dogmanEski |
agreed 100% correct
April 19 2007, 04:33 pm by ptansani |
it 101% actually. lol
April 19 2007, 07:28 pm by Zoso518 |
very good tab just at the end I thing the background chords over the solo are AM-AM7- and F/C.It doesn't make much of a difference it just has the same amount of strings to play as the others.

F/C
x----0
||||1|
|||2||
|34|||
April 20 2007, 04:28 pm by Nileppezdel |
before i said that you should probably include the strum pattern. It goes something like this (please correct me if i'm wrong). This is the end following the solo:

e|5-5-xxxx3-3-xxxx1xx1xx11x1xx113-|
B|5-5-xxxx3-3-xxxx1xx1xx11x1xx113-|
G|5-5-xxxx4-4-xxxx2xx2xx22x2xx224-|
D|7-7-xxxx5-5-xxxx3xx3xx33x3xx335-|
A|7-7-xxxx5-5-xxxx3xx3xx33x3xx335-|
E|5-5-xxxx3-3-xxxx1xx1xx11x1xx113-|

If that looks kind of jumbled here it is again, a little more spaced out:

e|5--5--x-x-x-x-3--3--x-x-x-x-1-x-x-1-x-x-1-1-x-1-x-x-1-1-3--|
B|5--5--x-x-x-x-3--3--x-x-x-x-1-x-x-1-x-x-1-1-x-1-x-x-1-1-3--|
G|5--5--x-x-x-x-4--4--x-x-x-x-2-x-x-2-x-x-2-2-x-2-x-x-2-2-4--|
D|7--7--x-x-x-x-5--5--x-x-x-x-3-x-x-3-x-x-3-3-x-3-x-x-3-3-5--|
A|7--7--x-x-x-x-5--5--x-x-x-x-3-x-x-3-x-x-3-3-x-3-x-x-3-3-5--|
E|5--5--x-x-x-x-3--3--x-x-x-x-1-x-x-1-x-x-1-1-x-1-x-x-1-1-3--|

The rythm is exactly how i meant it to be, no matter which spacing you look at (same rythm, double the spaces), so again please tell me if i'm wrong.

Sorry same message as before just neater i have OCD
April 20 2007, 04:33 pm by Nileppezdel |
I noticed that a lot of people were asking when to pick up ur pick. I think it is at this part after Plant is done singing the first verse and it goes into the chord scales:

E|--------5-7---7---|----8-------2------|----0-------0----|---------------|
B|-----------5-5-5--|---5-5-----3-3-----|---1--1----1-1---|-0-1-1-------3-|
G|------5-----5---5-|--5---5---2---2--2-|--2----2--2---2--|-0-2-2-------0-|
D|----7-----6-------|-5-----5-4-----4---|-3-------3-----3-|-------------0-|
A|-0-0--------------|-------------------|-----------------|-2-0-0-------2-|
E|------------------|-------------------|-----------------|---------------|

I could be wrong , but im pretty sure thats the first part played with a pick.
April 21 2007, 09:33 am by Godamn Electric |
Amazing tab for a great song
April 22 2007, 04:31 pm by GNRkixass |
hey uhh SOAD Worshiper: maybe when this guy learns to spell "Zeppelin" right, you can learn how to spell "ever" without a "y". lol dumbasses... I have a hard time sayin a tab can be "perfect" but if its possible, this is it. But it pisses me off all these people keep makin more Stairway tabs when its already obviously overdone. you cant beat this tab, so STOP MAKIN STAIRWAY TABS! this was the first tab for the song on this website, so why would people keep makin more tabs? idk why i get so messed up over it but its just stupid...
-1   April 23 2007, 11:26 am by fmssl |
great tab! exelent work!!
-1   April 26 2007, 08:06 pm by Metallicaman66 |
awesome tab, i like it, i like it alot
April 28 2007, 02:44 pm by DeltaForceCCR |
6 and a half years of good comments, great job
April 28 2007, 03:49 pm by Woolly |
Brilliant tab M8!
Register! You deserve the praise!
April 30 2007, 02:18 am by sherwood123 |
Mr. Eames - Can you check my clarify?
May 1 2007, 09:07 pm by awsomeguitarguy |
HOW THE F#%K DID AN UNREGISTERED DUDE MAKE A TAB AS AWESOME AS THIS!

HOLY S&@T!!!!!!!!!!!!!!!!!!!!!!!!!!!!!!!!!!!

AWESOME!!!!!!!!!!!!!!!!!!!!!!!!!!!!!!!!!!!!!!
May 2 2007, 06:20 am by Bguy |
dude best tab eva! u rock
May 3 2007, 08:28 pm by Caligaris27 |
Cheers! this tab kicks ass. must have took alot of time
May 3 2007, 11:33 pm by raulrocks |
tab is friggin long. kick ass of a job.


ZEPPELIN RULES
May 4 2007, 09:26 am by jhendrixrules |
this tab is unbelieveable and thanx to all the people that improved it with their coments. it really helped. does anyone here use power chords at the end of the solo (A5,G5,F5). it sounds good to me but im still playing acoustic so.....
May 7 2007, 12:22 pm by \,.robbie.,/ |
why are there 3 or 4 different versions of this song?
May 8 2007, 05:53 pm by mister bass guy |
this is probably the best tab on this site...congrats
May 10 2007, 05:56 am by boxie |
Lol this is funny because the Font changes half way through the comments...
Great tab BTW dude
May 15 2007, 02:41 pm by Cerz |
God this must have taken ages, even if some was copied, excatly right!
May 16 2007, 08:12 pm by xDeathwishx |
Dude.. I'm kinda mad at you. It sucked trying to print the damn thing out. First time I ran out of paper... You are very dedicated to tab the whole thing. I bet you haven't even read half of these comments, I wouldn't. anyway... AMAZING TAB. If I could you'd get 6 stars.
May 17 2007, 11:13 pm by marcelaguiar |
awsome...too bad this guy isnt registered... :( i want to know more of his tabs
May 20 2007, 09:55 am by xx.EVH II.xx |
this tab kicks ass, its 11 0ut of 10 stars
May 20 2007, 03:19 pm by HawkmanJL |
Great tap!! now time to start studying this gem over and over to learn to play it smoothly.
May 21 2007, 04:08 am by mucho-mum |
i've never actually listen to Led Zepplin much before (kill me)....
But now I can't stop listening to them!

This is such a great tab... It just sucks that ur not registered otherwise you'd be like the "top rank" in this web site...lol....
All in all GREAT TAB MAN! SPOT ON PERFECTO!
May 21 2007, 02:09 pm by thechuckmaster |
great what are the chords thought great job dude you are the vbest
May 22 2007, 11:20 am by metalhammer79 |
THIS IS THE BEST TAB IVE EVER SEEN
May 23 2007, 04:28 pm by aznwarlord |
Hey I've come to realize that this is a pretty easy song to play. I mean it took me half a year to finally get it down but I've only been playing for like what? 10 months? Just can't remember all the solo or I could play it from memory.
May 23 2007, 04:31 pm by aznwarlord |
I hate how you're missing the 16th measure, but it's funny how a nother website just copied and pasted this tab. It's missing the 16th measure as well
May 26 2007, 08:06 am by moonpie |
By The Way this tab has helped me sooo much....in learning to play this song... most other tabs of this song are either hard to read or....just wrong! cheers again!
May 30 2007, 03:10 pm by Parkour-Freek |
Nice 1 ;)
May 31 2007, 02:33 pm by Megs_905 |
HOLY SHIT....Wow dude!! Nice - Im not sure about

|--0--|
|-----|
|-----|
|--3--|
|-----|
|-----|

It is really tough and I am wondering if you have any suggestions on how to do this. I can't do it very well.

Anyway

Holy Fluck this tab is amazing...keep up with good work.

Cheers

Megs
June 1 2007, 12:47 pm by Guitarman8278 |
this tab is awsome
June 3 2007, 04:09 pm by minichibi |
After 11th measure it should go like this:

3-2-2-2-
3---3-3-
2---2-2-
--------
--------
--------

Listen to the song. still 5 stars though, dont get me wrong.
June 7 2007, 07:54 pm by hankguitar7 |
o to you tube and there is this little kid who olays it amazingly well for his age well and he plays a little different than this tab i dont no whos right though i have to listen to the song and figure it out but this is amazing good job
June 9 2007, 06:36 pm by mister bass guy |
yea, i saw that kid.
-1   June 13 2007, 05:27 am by smitty_bang |
WRONG most of it is right but theres one bit your missing and it just kills it
June 14 2007, 05:03 pm by ledzeppelin1011 |
awsome tab shut up smitty who cares
+1   June 15 2007, 10:16 pm by mister bass guy |
HEY, EVERYBODY WHO SAYS THIS TAB IS PERFECT(I TAKE BACK WHEN I SAID IT BEFORE), UR WRONG!!!! THE
E|-3^2-2-2---------|
B|-----3-3---------|
G|-----------------|
D|-0---0-0---------|
A|-------------0-2-|
E|-----------------|
IN THE INTRO OF THE FIRST PART IS MISSING!!! WTF!!!
June 17 2007, 02:09 pm by hendrixfreak93 |
great tab, i thought i was never going to get to the bottom of this comments page haha. instead of finger-picking this, i find it much easier to hybrid pick, it sounds a lot better too. :D
June 26 2007, 05:51 pm by jxmxsc |
amazing tab, but im not sure which version of the solo is the easiest/best to use... any advice from a more advanced guitarist would be appreciated :)
+1   June 26 2007, 06:06 pm by jxmxsc |
also any concerned with this:

|--0--|
|-----|
|-----|
|--3--|
|-----|
|-----|

It needs to be finger picked. I use the thumb and first finger and just flick the strings towards each other at the same time... if that makes sense.
June 27 2007, 12:21 am by austin.guitar |
This is one of the greatest songs ever and this is definantly the best tab I've seen for this song! Awesome job whoever you are! There was maybe one mistake, but it is so awesome and it didn't matter, so thank you, I have now learned this song in less than 2 weeks! I can't play the solo yet but pretty much everything else! AWESOME!!! LED ZEPPELIN ROCKS!
July 1 2007, 06:57 am by alex z |
all u dumbasses out there that say this guy copied it grow a penis and man this is awesome dude i lernt it hardcore the best part is the solo man nice hey ive seen jimmy page lay it live on some dvd thing he plays it exactly the same as this tab lyk exactly not even lyk an octave wrong dude this some crazy shit dude if i sore u in real lyf i would kiss you nar i wouldnt go that far and u noe the funny thing the peopel that send the sickesst tabs in are unregistered so u can email them or some crap it kills me hi 5
July 1 2007, 02:39 pm by Zlatorok7 |
Oh my God this tab is great!Congratulation!
+2   July 4 2007, 02:05 pm by Josher.K |
[03/20/2002 - 12:00 am] by Tessa : |
Um, you are criticising him for not spelling Zeppelin right, and you just spelt it "Zepplin" You retard. GREAT TAB MAN. THANKS. DON'T LISTEN TO THE NEGATIVE COMMENTS BECAUSE I LOOKED IN A GUITAR BOOK AND THE FIRST PART IS DEAD ON. [THUMBSUP]


----Agreed,
July 8 2007, 05:48 pm by shelovemyguitar |
Thats a very nice tab even if the solo is a bit wrong... But my god 13 page to print this is f***ing long!

F**k you all

Max alias shelovemyguitar(There were no more place to put an 's' to loves)
July 8 2007, 06:32 pm by Guitar_man191 |
dude who cares if it takes 13 pages to print and who cares about the intro you guys can shut your mouths because the dude that tabbed this has worked hard on this tab and u b*t*h*s get these tabs for FREE so go cry to ur mama about it!!
July 8 2007, 07:10 pm by shelovemyguitar |
You're ****in wright Guitar_man191.
July 8 2007, 07:48 pm by shelovemyguitar |
And i think that its more :

|------------------------|
|-0-1-1------------------|
|-0-2-2------------------|
|------------------------|
|-2-0-0---0---5/8-7------|
|------------------------|
July 9 2007, 04:39 am by FrankPeters |
Thank you for this tab
July 12 2007, 12:48 am by jonmcb16 |
good tab man it is perfect
July 12 2007, 06:36 pm by bezza87 |
5* nearly 3000 rating of wat a ******* tab N1 :)
July 14 2007, 03:32 pm by Kanu |
lol... come on
July 15 2007, 03:24 pm by rachy2992 |
awesome tab. it must've taken you FOREVER to do. LoL. props.
July 15 2007, 07:05 pm by chip92us |
Awesome tab. Thanks for all your work, man.

I downloaded a tribute version of this song from Napster and it is slightly different from the original by Led Zeppelin. Can anyone tell me where I might find the original version of this song (preferably not live)?
July 16 2007, 06:57 am by The Masterplan |
haha such a good tab and he spelled zeppelin wrong lol
July 16 2007, 07:10 pm by mohawkkidJohn |
if the person who tabbed this out has a ug profile i bet they are really pissed cause the didnt sign in before tabbing this monster of a tab.
+1   July 20 2007, 02:26 am by fender_bullet |
wow...great tab weather you spelled zeppelin right or wrong. who really cares -.- But i can play the intro and almost all the way to the solo but i havn't even started the solo. But thanks its great tab. ^_^
July 20 2007, 12:06 pm by swing life away |
dude awesome tab keep at it
July 21 2007, 02:25 am by motimon3 |
Theres 3 versions of this song.. which 1 is de best n most accurate? or are they all like the same
July 21 2007, 04:23 pm by BFMV fan |
How come u put like 5 ways to play the song, in the bottom of the lyrics? And Yea for most of the beginning u need to finger pick, later on when the song starts using the chords then thats when i use my pick
July 23 2007, 02:50 pm by getarist4christ |
sounds great
July 24 2007, 07:40 pm by grunger549 |
this is great, i play some of differently cus i learned off a live version.
but its a great tab, this is right
July 28 2007, 04:30 pm by kevrawkstar |
perfect tab, hard song 2 remembr /learn
July 28 2007, 10:29 pm by marzanoface |
6's & 7's - the first part is confusing dingleberry
July 29 2007, 05:54 pm by Kashmir007 |
it's good down there,mate.i played the song dozens of time using this tab,and it sounds perfect.
July 29 2007, 06:50 pm by Dragforce92 |
nice job its made so many people happy.
July 30 2007, 12:34 pm by Tele Echoes |
This song is brilliant and a big thanks to the poster, although I really don't understand why so many people are saying it's that hard. I can play the whole finger picking part with my eyes closed and I've only been finger picking for 3 days now. However, if anyone else here wants another fine piece of finger picking music, I'd suggest Beethoven's "moonlight sonata", which is pretty darn challenging. I started playing that the same day as Stairway and I'm only around the half way point. Mastered what I've learned thus far, though.
July 30 2007, 01:08 pm by Olololololo |
Nice tab ;)
July 30 2007, 06:11 pm by TheBassMan3 |
it is too hard
+1   July 31 2007, 02:03 pm by craZelz |
whoever says its too hard, don't say on here, not the poster's fault, its no ones fault, i used to think it was hard 5 months ago when i started learning guitar but now i find it easy, so just persevere k? (also i have learned things other than stairway before i get told off about that)

the tab is PERFECT just kinda confusing with the repeats etc.
-3   August 1 2007, 02:39 am by pretzleman |
Words and music by jimmy page and robert plant

Whole song in 4/4 times except ending is in 8/4 and noted part in solo is 2/4
Key
#h#----------------------hammer on
#p#----------------------pull off
/------------------------slide up
\------------------------slide down
^------------------------bend up
(#)----------------------ghost note don’t play


|----------5--7--------7-|-8--------8--2--------2-|-0--------------0-------|
|-------5--------5-------|----5-----------3-------|----1-----1--------1----|
|----5--------------5----|-------5-----------2----|-------2--------------2-|
|-7-----------6----------|-5-----------4----------|-3----------------------|
|------------------------|------------------------|------------------------|
|------------------------|------------------------|------------------------|

|----0--0----------------|-------------7--------7-|-8--------8--2--------2-|
|-0--1--1----------------|----------5-----5-------|----5-----------3-------|
|-0--2--2----------------|-------5-----------5----|-------5-----------2----|
|------------------------|----7--------6----------|-5-----------4----------|
|-2--0--0-----0-6/(8)--7-|-0----------------------|------------------------|
|------------------------|------------------------|------------------------|

|-0--------------0-------|----0--0----------------|----------0--2--------2p0-|
|----1-----1--------1----|-0--1--1----------------|----------------3---------|
|-------2--------------2-|-0--2--2----------------|-------0-----------2------|
|-3----------------------|------------------------|----2--------0------------|
|------------------------|-2--0--0---------0--2---|-3------------------------|
|------------------------|------------------------|--------------------------|

|-0--------0---------------|-------------3--------3-|-3p2--2--2--------------|
|----1--------0h1----------|-1--------1-----0-------|-3----3--3--------------|
|-------2----------2-------|----0--------------0----|-2----0--0--------------|
|-3------------------------|----2--2----------------|-0----0--0--------------|
|-------------0-------0--2-|-3----------------------|-----------------0--2---|
|--------------------------|-------------3----------|------------------------|

|----------0--2--------2p0-|-0--------0-------------|-------------2--------2-|
|----------------3---------|----1--------0----------|----------1--------3----|
|-------0-----------2------|-------2--------2-------|-------0--------2-------|
|----2--------0------------|-3----------------------|----2--------0----------|
|-3------------------------|-------------0-----0--2-|-3----------------------|
|--------------------------|------------------------|------------------------|

|-0--0--0----------------|----------5--7--------7-|-8--------8--2--------2-|
|-1--1--1----------------|-------5--------5-------|----5-----------3-------|
|-2--2--2----------------|----5--------------5----|-------5-----------2----|
|-3--3--3----------------|-7-----------6----------|-5-----------4----------|
|------------------------|------------------------|------------------------|
|------------------------|------------------------|------------------------|
There’s a lady whose sure all that glit-ters is gold and she’s


|-0--------------0-------|------------------------|----------5--7--------7-|
|----1-----1--------1----|-0--1--1----------------|-------5--------5-------|
|-------2--------------2-|-0--2--2----------------|----5-----------5--5----|
|-3----------------------|------------------------|-7-----------6----------|
|------------------------|-2--0--0----------------|------------------------|
|------------------------|------------------------|------------------------|
Buy - ing the stairway to heav - (en) When she gets there she knows if the
-3   August 1 2007, 02:40 am by pretzleman |
|-8--------8--2--------2-|----0--------0---------|------------------------|
|----5-----------3-------|----1-----1-----1------|-0--1--1----------------|
|----5--5--------2--2----|----2--2-----------2p0-|-0--2--2----------------|
|-5-----------4----------|-3---------------------|-2--0--0---------0--2---|
|------------------------|-----------------------|------------------------|
|------------------------|-----------------------|------------------------|
Stores are all closed with a word she can get what she came for


|-------------2--------2-|-0--------0----------------|-------------3--------3-|
|----------1-----3-------|----1--------1--0----------|-1--------1-----0-------|
|-------0-----------2----|-------2-----------2-------|----0--------------0----|
|----2--------0----------|-3-------------------------|-------2----------------|
|-3----------------------|----------------0-----0--2-|-3----------------------|
|------------------------|---------------------------|-------------3----------|
Ooo,______________________________________and she’s buy - ing a stair - way to


|-3p2--2--2--------------|----------0--2--------2-|-0-----------------------|
|-3----3--3--------------|----------------3-------|----1-----1--0-----------|
|-2----0--0--------------|-------0-----------2----|-------2--------2--------|
|-0----0--0--------------|----2--------0----------|-3-----------------------|
|-----------------0--2---|-3----------------------|-------------------0--2--|
|------------------------|------------------------|-------------------------|
Heav - (en) There’s a sign on the wall but she wants to be sure ‘cause you


|-------------2--------2-|-0--0--0----------------|----------5--7--------7-|
|----------1--------3----|-1--1--1----------------|-------5--------5-------|
|-------0--------2-------|-2--2--2----------------|----5--------------5----|
|----2--------0----------|-3--3--3----------------|-7-----------6----------|
|-3----------------------|------------------------|------------------------|
|------------------------|------------------------|------------------------|
Know sometimes words have to mean - ings In a tree by the brook there’s a


|-8--------8--2--------2-|-0--------------0-------|------------------------|
|----5-----------3-------|----1-----1--------1----|-0--1--1----------------|
|-------5-----------2----|-------2--------------2-|-0--2--2----------------|
|-5-----------4----------|-3----------------------|-0--0--0----------------|
|------------------------|------------------------|-2--0--0------0--/8---7-|
|------------------------|------------------------|------------------------|
Song bird who sings sometimes all of our thoughts are mis-giv - en






|----------5--7-------7-------|-------5-----------2-------|-------0--------------0-----|
|-------5-------5---5---5-----|-----5---5-------3---3-----|-----1----1---------1---1---|
|----5------------5-------5---|---5-------5-----------2---|---2--------2-----2-------2-|
|-7-----------6-------------6-|-5-----------5-4---------4-|-3------------3-3-----------|
|-----------------------------|---------------------------|----------------------------|
|-----------------------------|---------------------------|----------------------------|


|-----------------------|-3--3-3-3--3----0----3--|-2-------2----2--2--------|
|-0--1--1------------3--|-1--1-1-1--1----1----3--|-3-------3--3-3--3----1p0-|
|-0--2--2------------0--|-0--0-0-0--0----0----0--|-2-------2--2-2--2----0---|
|-0--0--0------------0--|-2--2-2-2--2----2----0--|-0----0-----0-0--0----2p0-|
|-2--0--0------------2--|------------------------|------0-------------------|
-3   August 1 2007, 02:41 am by pretzleman |
|-----------------------|------------------------|--------------------------|
Ooo,______It makes me won-


|----3-3-3--3-----0-----7--|-x--5--x--3--x--5--------|-3--3-3-3--3-----0-----0--|
|-1--1-1-1--1--x--1--x--8--|-x--7--x--5--x--7--------|-1--1-1-1--1--x--1--x--3--|
|-0--0-0-0--0--x--0--x--9--|-x--7--x--5--x--7--7-----|-0--0-0-0--0--x--0--x--0--|
|-2--2-2-2--2--x--2--x--0--|-------------------------|-2--2-2-2--2--x--2--x--0--|
|--------------------------|----------------------0--|--------------------------|
|--------------------------|-------------------------|--------------------------|
Der Ooo,_________________________


|----2------------2-2---------|----3-3-3--3p0---0-----7--|-x--5--x--3--x--5--5--|
|-x--3--------3---3-3-3--1-0--|-1--1-1-1--1--x--1--x--8--|-x--7--x--5--x--7-----|
|-x--2--2-----0h2-2-2-2--0-0--|-0--0-0-0--0--x--0--x--9--|-x--7--x--5--x--7-----|
|-x--0-----0-------------2-0--|-2--2-2-2--2--x--2--x--0--|----------------------|
|-----------------------------|--------------------------|----------------------|
|-----------------------------|--------------------------|----------------------|
________makes me wonder_______________________________________ There’ a


|------------------------|-------------------------|----------------------0--|
|----------1-----------3-|-0h1-------------1-------|----------1-----------1--|
|-------0-----------0----|-----2--------2----------|-------0-----------0--2--|
|----2-----------0-------|-----------2-------------|----2-----------0-----3--|
|-3-----------2----------|--------0-----------0--2-|-3-----------2--------3--|
|------------------------|-------------------------|----------------------1--|
Feel - ing I get when I look to the west and my spir - it is crying for leav-


|--0-----------------|------------------------|----------------------------|
|--1-----------------|----------1-----------3-|-0h1---------------1--------|
|--2-----------------|-------0-----------0----|------2---------2-----------|
|--2-----------------|----2-----------0-------|------------2---------------|
|--0------------0--2-|-3-----------2----------|---------0-------------0--2-|
|--------------------|------------------------|----------------------------|
-ing In my thoughts I have seen rings of smoke through the trees and the







|----------------------0--|--0-----------------|------------------------|
|----------1-----------1--|--1-----------------|----------1-----------3-|
|-------0-----------0--2--|--2-----------------|-------0-----------0----|
|----2-----------0-----3--|--2-----------------|----2-----------0-------|
|-3-----------2--------3--|--0------------0--2-|-3-----------2----------|
|----------------------1--|--------------------|------------------------|
Voices of those who stand look - ing


|-3--3-3-3--3------0-----0--|----2-------------0h2-2-2-2------|-3--3-3-3--3--0-0-0--0-0-7-|
|-1--1-1-1--1--x-x-1-----3--|----3-------------3---3-3-3--0-1-|-1--1-1-1--1--x-x-1--x-x-8-|
|-0--0-0-0--0--x-x-0--0--0--|-0--2-------------2---2-2-2--0-0-|-0--0-0-0--0--0-0-0--0-0-9-|
|-2--2-2-2--2--x-x-2--2--2--|-------------0---------------0-2-|-2--2-2-2--2--x-x-2--x-x-0-|
|------------------------0--|---------------------------------|---------------------------|
|---------------------------|---------------------------------|---------------------------|
Ooo,_______________ It makes me won - der
-5   August 1 2007, 02:41 am by pretzleman |
|--x-x-5--x-x-3--x-x-5----5-----|-3--3-3-3--3------0-----0--|-x--2--2----2------2------|
|--x-x-7--x-x-5--x-x-7--7-7-----|-1--1-1-1--1--x-x-1-----3--|-x--3--3----3--x-x-3--0-1-|
|--x-x-7--x-x-5--x-x-7--7-7-----|-0--0-0-0--0--x-x-0--x--2--|-0--2--2----2--x-x-2--0-0-|
|-------------------------------|-2--2-2-2--2--x-x-2--x--0--|---------0-----x-x----0-2-|
|----------------------------0--|---------------------------|--------------------------|
|-------------------------------|---------------------------|--------------------------|
Ooo,___________________________(it)really makes me wonder(now)


|-3----3--3--3----3----0--0--0----0--0--7----|-x----5----x----3----x----5-------------|
|-1----1--1--1----1----x--x--1----x--x--8----|-x----7----x----5----x----7-------------|
|-0----0--0--0----0----0--0--0----0--0--9----|-x----7----x----5----x----7-------------|
|-2----2--2--2----2----x--x--2----x--x--0----|----------------------------------------|
|--------------------------------------------|-----------------------------------2----|
|--------------------------------------------|----------------------------------------|
And it’s


|------------------------|--------------------------|----------------------0--|
|----------1-----------3-|-0-1--------------1-------|----------1-----------1--|
|-------0-----------0----|------2--------2----------|-------0-----------0--2--|
|----2-----------0-------|------------2-------------|----2-----------0-----3--|
|-3-----------2----------|---------0-----------0--2-|-3-----------2--------3--|
|------------------------|--------------------------|----------------------1--|
Whis - per that soon if we all call the tune then thepi - per will lead us to reas-


|--0-----------------|------------------------|--------------------------|
|--1-----------------|----------1-----------3-|-1---------------1--------|
|--2-----------------|-------0-----------0----|----2---------2-----------|
|--2-----------------|----2-----------0-------|------------2-------------|
|--0------------0--2-|-3-----------2----------|---------0-----------0--2-|
|--------------------|------------------------|--------------------------|
on And a new day will dawn for those who stand long and the






|----------------------0--|--0-----------------|------------------------|
|----------1-----------1--|--1-----------------|----------1-----------3-|
|-------0-----------0--2--|--2-----------------|-------0-----------0----|
|----2-----------0-----3--|--2-----------------|----2-----------0-------|
|-3-----------2--------3--|--0------------0--2-|-3-----------2----------|
|----------------------1--|--------------------|------------------------|
for - ests will ech-o with laugh - ter


|-3--3-3-3--3--0-0-0--0-0-0--|-----2--2-2----2--2-2-2--2-0--|-3--3-3-3--3--0-0-0--0-0-7--|
|-1--1-1-1--1--x-x-1--x-x-3--|-x-x-3--3-3----3--3-3-3--3-0--|-1--1-1-1--1--x-x-1--x-x-8--|
|-0--0-0-0--0--0-0-0--0-0-0--|-x-x-2--2-2----2--2-2-2--2-0--|-0--0-0-0--0--0-0-0--0-0-9--|
|-2--2-2-2--2--x-x-2--x-x-0--|-x-x-0------0-----------------|-2--2-2-2--2--x-x-2--x-x-0--|
|-0--------------------------|------------------------------|-0--------------------------|
|----------------------------|------------------------------|----------------------------|


|-x--5--x--3--x--5--5-----|-3--3-3-3--3--x-x-0--x--x--|-x--2--------x-x-2--0-0--|
|-x--7--x--5--x--7--7-----|-1--1-1-1--1--x-x-1--x--3--|-x--3--------x-x-3--0-0--|
|-x--7--x--5--x--7--7-----|-0--0-0-0--0--x-x-0--x--0--|-x--2--------x-x-2--0-0--|
|-------------------------|-2--2-2-2--2------2-----0--|----0------------0-------|
|----------------------0--|---------------------------|-------------------------|
|----------------------0--|---------------------------|-------------------------|
Oh,________________

-4   August 1 2007, 02:42 am by pretzleman |
|-3--3-3-3--3--0-0-0--0-0-7--|-x--5--x--3--x--5--5-----|------------------------|
|-1--1-1-1--1--x-x-1--x-x-8--|-x--7--x--5--x--7--7-----|----------1-----------3-|
|-0--0-0-0--0--0-0-0--0-0-9--|-x--7--x--5--x--7--7-----|-------0-----------0----|
|-2--2-2-2--2--x-x-2--x-x-0--|-------------------------|----2-----------0-------|
|-0--------------------------|----------------------2--|-3-----------2----------|
|----------------------------|-------------------------|------------------------|
If there’s a bustle in your


|-------------------------|------------------------0--|--0-----------------|
|-0h1-------------1-------|----------1-------------1--|--1-----------------|
|-----2--------2----------|-------0-------------0--2--|--2-----------------|
|-----------2-------------|----2-------------0-----3--|--2-----------------|
|--------0-----------0--2-|-3-------------2--------3--|--0------------0--2-|
|-------------------------|------------------------1--|--------------------|
Hedgerow don’t be alarmed now it’s just a spring clean for the May - queen


|------------------------|--------------------------|------------------------0--|
|----------1-----------3-|-0h1--------------1-------|----------1-------------1--|
|-------0-----------0----|------2--------2----------|-------0-----------0----2--|
|----2-----------0-------|------------2-------------|----2-----------0-------3--|
|-3-----------2----------|---------0-----------0--2-|-3-----------2----------3--|
|------------------------|--------------------------|------------------------1--|
Yes there are two paths you can go by but in the long run there’s still time to change the road







|--0-----------------|------------------------|-3--3-3-3-3-3----0----0--|
|--1-----------------|----------1-----------3-|-1--1-1-1-1-1----1----3--|
|--2-----------------|-------0-----------0----|-0--0-0-0-0-0----0----0--|
|--2-----------------|----2-----------0-------|-2--2-2-2-2-2----2----0--|
|--0------------0--2-|-3-----------2----------|-0-----------------------|
|--------------------|------------------------|-------------------------|
You’re on___


|----2--2----2--2--2---0--0--|-3----3-3--3----0----7--|----5----3----5--5\----|
|----3--3----3--3--3---0--0--|-1----1-1--1----1----8--|----7----5----7--7\----|
|----2--2----2--2--2---0--0--|-0----0-0--0----0----9--|----7----5----7--7\----|
|----0-----------------------|-2----2-2--2----2----0--|-----------------0-----|
|----------------------------|-0----------------------|-----------------0--2--|
|----------------------------|------------------------|-----------------------|
And it makes me won - der


|-3--3-3-3-3-3----0----0--|----2--2----2-2-2--0-0--|-3----3-3--3----0----7--|
|-1--1-1-1-1-1----1----3--|----3--3----3-3-3--0-0--|-1----1-1--1----1----8--|
|-0--0-0-0-0-0----0----0--|----2--2----2-2-2--0-0--|-0----0-0--0----0----9--|
|-2--2-2-2-2-2----2----0--|----0-------------------|-2----2-2--2----2----0--|
|-0-----------------------|------------------------|-0----------------------|
|-------------------------|------------------------|------------------------|
Ahh._______________________


|----5--3--5-5\--|-0-----------3----------|--------------------------|
|----7--5--7-7\--|----------1-----------3-|-0h1--------------1-------|
|----7--5--7-7\--|-------0-----------0----|------2--------2----------|
|----------------|----2-----------0-------|------------2-------------|
|------------0-2-|-3-----------2----------|---------0-----------0--2-|
|----------------|------------------------|--------------------------|
Your head is humming and it won’t go in case you don’t know
-3   August 1 2007, 02:42 am by pretzleman |
|-0-----------3--------0--|--0-----------------|-0-----------3----------|
|----------1-----------1--|--1-----------------|----------1-----------3-|
|-------0-----------0--2--|--2-----------------|-------0-----------0----|
|----2-----------0-----3--|--2-----------------|----2-----------0-------|
|-3-----------2--------3--|--0------------0--2-|-3-----------2----------|
|----------------------1--|--------------------|------------------------|
The piper’s calling you to join him Dear lady can you hear the wind


|-------------------------|-0-------------3--------0--|--0-----------------|
|-0h1-------------1-------|----------1-------------1--|--1-----------------|
|-----2--------2----------|-------0-------------0--2--|--2-----------------|
|-----------2-------------|----2-------------0-----3--|--2-----------------|
|--------0-----------0--2-|-3-------------2--------3--|--0------------0--2-|
|-------------------------|------------------------1--|--------------------|
Blow and did you know you stairway lies on the whis - ‘prin’ wind_______






|-0-----------3-----------3--|--2---------------------------0--2--2-|
|----------1-----------0--0--|--3---------------------------3--3--3-|
|-------0-----------0--0--0--|--2---------------------------2--2--2-|
|----2--2--------0--0--0--0--|--0---------------------------0--0--0-|
|-3-----------2--------2--2--|--------------------------------------|
|----------------------------|--------------------------------------|
Oh.________________________


|----3---0--2--2--3----0--2--2-|--3---3---2---|--3----0---2----2--2---0----|
|----3---3--3--3--3----3--3--3-|--3---3---3---|--3----3---3----3--3---3----|
|----2---2--2--2--2----2--2--2-|--2---2---2---|--0----0---0----0--0---0----|
|----0---0--0--0--0----0--0--0-|--0---0---0---|--2----2---2----2--2---2----|
|------------------------------|--------------|--3----3---3----3--3---3----|
|------------------------------|--------------|----------------------------|


|----3---3--2----2-2--0----0---0-2-|---3----0--2-3----0-2-|---3---3---2---0-|
|----3---3--3----3-3--3----3---3-3-|---3----3--3-3----3-3-|---3---3---3---3-|
|----0---0--0----0-0--0----0---2-2-|---2----2--2-2----2-2-|---2---2---2---0-|
|----2---2--2----2-2--2----2---0-0-|---0----0--0-0----0-0-|---0---0---0---2-|
|----3---3--3----3-3--3----3-------|----------------------|---------------3-|
|----------------------------------|----------------------|-----------------|


|--------2----2--2----0----0------|---------------------------------|
|--------3----3--3--------------3-|-0---3---3---3---3---3---3-----3-|
|--------0----0--0----------------|-0---0---0---0---0---0---0-----0-|
|--------2----2--2----------------|-0---0---0---0---0---0---0-----0-|
|--------3----3--3----------------|-2---2---2---2---2---2---2-----2-|
|---------------------------------|---------------------------------|

-3   August 1 2007, 02:44 am by pretzleman |
SOLO
|------5-----------------------|
|--------8-5-------------------|
|-7^---------7-5---7-5---------|
|----------------7-----7-5-3-3-|
|------------------------------|
|------------------------------|

|---------------------------------10-|
|------13-13-13^--13-10-----10-13----|
|-12^-------------------/12----------|
|------------------------------------|
|------------------------------------|
|------------------------------------|

|-----------------|
|-13-10-8----8-10-|
|---------10------|
|-----------------|
|-----------------|
|-----------------|

|-----5-------------------------------------|
|-------8-5---------------------------------|
|-7^--------7-5---7-5-----------5---5-5-----|
|---------------7-----7-5---5-7---7-----5\3-|
|-------------------------7-----------------|
|-------------------------------------------|

|-5---------------------------|
|---8-5-----------------------|
|-------7-5---7-5-------------|
|-----------7-----7-5-7-5-----|
|-------------------------8-8-|
|-----------------------------|

|--------------------------------|
|-------5-------------8-------15-|
|-----5---7-5---5-7/9---12-14----|
|-/7----------7------------------|
|--------------------------------|
|--------------------------------|

|----------------------15^--15-12--------------|
|-15^---15-13-15-13-13------------15^-15-13----|
|-------------------------------------------14-|
|----------------------------------------------|
|----------------------------------------------|
|----------------------------------------------|

2/4 time
|-------------------------------------------------------|
|-13-15^r-13----13-15^r-13----13-15^r-13----13-15^r-13--|
|------------14------------14------------14-------------|
|-------------------------------------------------------|
|-------------------------------------------------------|
|-------------------------------------------------------|

2/4 time
|----------------------------------------------------------|
|----13-15^r-13----13-15^r-13----13-15^r-13----13-15^r-13--|
|-14------------14------------14------------14-------------|
|----------------------------------------------------------|
|----------------------------------------------------------|
|----------------------------------------------------------|

2/4 time
|-----------------------------------15^-|
|----13-15^r-13----13-15^r-13----13-----|
|-14------------14------------14--------|
|---------------------------------------|
|---------------------------------------|
|---------------------------------------|

|-12-15-12------------------------------15-|
|----------15-12----13-15-13----13-15^-----|
|----------------14----------14------------|
|------------------------------------------|
|------------------------------------------|
|------------------------------------------|

|------------------|
|-13\12----13\(12)-|
|------------------|
|------------------|
|------------------|
|------------------|

|------15-17-15---------------------------|
|-15^-----------15^-15-13-15-13----13-15^-|
|-------------------------------14--------|
|-----------------------------------------|
|-----------------------------------------|
|-----------------------------------------|

|------------------|
|-13\12----13\(12)-|
|------------------|
|------------------|
|------------------|
|------------------|

|----------------------------|
|-11^---11^--10----10--------|
|---------------12----12-12v-|
|----------------------------|
|----------------------------|
|----------------------------|

|------------------|
|-13\12----13\(12)-|
|------------------|
|------------------|
|------------------|
|------------------|

|---------------------------|
|-8^----7^r--5-7------------|
|----------------7/9\7--5---|
|-------------------------7-|
|---------------------------|
|---------------------------|

|------------------|
|-13\12----13\(12)-|
|------------------|
|------------------|
|------------------|
|------------------|

|----20-17----20-17----20-17----20-17-20-17----20^-|
|-17-------17-------17-------17-------------17-----|
|--------------------------------------------------|
|--------------------------------------------------|
|--------------------------------------------------|
|--------------------------------------------------|

-5   August 1 2007, 02:44 am by pretzleman |
ENDING
|-5--5--------3--3--------|-1----1----1----1----1---3--|-5--5--------3--3--------|
|-5--5--------3--3--------|-1----1----1----1----1---3--|-5--5--------3--3--------|
|-5--5--------4--4--------|-2----2----2----2----2---4--|-5--5--------4--4--------|
|-7--7--------5--5--------|-3----3----3----3----3---5--|-7--7--------5--5--------|
|-7--7--------5--5--------|-3----3----3----3----3---5--|-7--7--------5--5--------|
|-5--5--------3--3--------|-1----1----1----1----1---3--|-5--5--------3--3--------|
And as we wind on down the road__ our shadows taller than our soul


|-1----1----1----1----1-3--|-5--5--------5--3--3------|-1----1----1----1----1--3-|
|-1----1----1----1----1-3--|-5--5--------5--3--3------|-1----1----1----1----1--3-|
|-2----2----2----2----2-4--|-5--5--------5--4--4------|-2----2----2----2----2--4-|
|-3----3----3----3----3-5--|-7--7--------7--5--5------|-3----3----3----3----3--5-|
|-3----3----3----3----3-5--|-7--7--------7--5--5------|-3----3----3----3----3--5-|
|-1----1----1----1----1-3--|-5--5--------5--3--3------|-1----1----1----1----1--3-|
There walks a la - dy we all know_________


|-5--5--------3--3--------|-1----1----1----1----1-3--|-5--5--------5--3--3-------|
|-5--5--------3--3--------|-1----1----1----1----1-3--|-5--5--------5--3--3-------|
|-5--5--------4--4--------|-2----2----2----2----2-4--|-5--5--------5--4--4-------|
|-7--7--------5--5--------|-3----3----3----3----3-5--|-7--7--------7--5--5-------|
|-7--7--------5--5--------|-3----3----3----3----3-5--|-7--7--------7--5--5-------|
|-5--5--------3--3--------|-1----1----1----1----1-3--|-5--5--------5--3--3-------|
who shines white light and wants to show___ how everything still turns to


|-1----1----1----1----1-3--|-5--5--------5--3--3------|-1----1----1----1----1--3-|
|-1----1----1----1----1-3--|-5--5--------5--3--3------|-1----1----1----1----1--3-|
|-2----2----2----2----2-4--|-5--5--------5--4--4------|-2----2----2----2----2--4-|
|-3----3----3----3----3-5--|-7--7--------7--5--5------|-3----3----3----3----3--5-|
|-3----3----3----3----3-5--|-7--7--------7--5--5------|-3----3----3----3----3--5-|
|-1----1----1----1----1-3--|-5--5--------5--3--3------|-1----1----1----1----1--3-|
gold________ And if you lis-ten ve-ry hard___________







|-5--5--------5--3--3------|-1----1----1----1----1--3-|-5--5--------3--3----1----|
|-5--5--------5--3--3------|-1----1----1----1----1--3-|-5--5--------3--3----1----|
|-5--5--------5--4--4------|-2----2----2----2----2--4-|-5--5--------3--3----2----|
|-7--7--------7--5--5------|-3----3----3----3----3--5-|-7--7--------5--5----3----|
|-7--7--------7--5--5------|-3----3----3----3----3--5-|-7--7--------5--5----3----|
|-5--5--------5--3--3------|-1----1----1----1----1--3-|-5--5--------3--3----1----|
the tune will come to you at last_______ when all are one and one is all
-5   August 1 2007, 02:45 am by pretzleman |
|--------------------------|-5--5--------3--3----1----|--------------------------|
|--------------------------|-5--5--------3--3----1----|--------------------------|
|--------------------------|-5--5--------3--3----2----|--------------------------|
|--------------------------|-7--7--------5--5----3----|--------------------------|
|--------------------------|-7--7--------5--5----3----|--------------------------|
|--------------------------|-5--5--------3--3----1----|--------------------------|
_____________yeah_ to be a rock and not to roll________________________________


|----5--5----3----3----|--0--------------------|--5----5-----3----3-----|
|----5--5----3----3----|--1----1--------3-3-3--|--5----5-----5----5-----|
|----5--5----5----5----|--2----2--------4-4-4--|--5----5-----5----5-----|
|----7--7----5----5----|--3----3--------5-5-5--|--7----7-----5----5-----|
|----7--7----3----3----|--3----3--------5-5-5--|--7----7-----3----3-----|
|----5--5----3----3----|--1----1--------3-3-3--|--5----5-----3----3-----|
______________________________________________________________________


|----0--------------------------------3--3--3--|--5----5-----3----3-----|
|----1----1---------------------------4--4--4--|--5----5-----5----5-----|
|----2----2---------------------------5--5--5--|--5----5-----5----5-----|
|----3----3---------------------------5--5--5--|--7----7-----5----5-----|
|----3----3---------------------------5--5--5--|--7----7-----3----3-----|
|----1----1---------------------------3--3--3--|--5----5-----3----3-----|


|----0-------------3--3--3--|--5----5-----3----3-----|--1---------------|
|----1----1--------4--4--4--|--5----5-----5----5-----|--1---------------|
|----2----2--------5--5--5--|--5----5-----5----5-----|--2---------------|
|----3----3--------5--5--5--|--7----7-----5----5-----|--3---------------|
|----3----3--------5--5--5--|--7----7-----3----3-----|--3---------------|
|----1----1--------3--3--3--|--5----5-----3----3-----|--1---------------|
And she’s

|--------------------------|--------------------------|--------------------------|
|--------------------------|--------------------------|--------------------------|
|--------------------------|--------------------------|--------------------------|
|--------------------------|--------------------------|--------------------------|
|--------------------------|--------------------------|--------------------------|
|--------------------------|--------------------------|--------------------------|
Buy - ing a stair - way___ to heav - en______

there you go days of work in 1 comment
-5   August 1 2007, 02:47 am by pretzleman |
i just had to get that out of me sorry
-3   August 1 2007, 02:48 am by pretzleman |
and ya its LED ZEPPELIN i can spell
-3   August 1 2007, 02:52 am by pretzleman |
iand the words arent in the right spot in the comment (they were supposed to be i dont know why they arent) but i did type them right so just pay attention to the tab :)
-3   August 1 2007, 02:56 am by pretzleman |
andmy solo is right also this one by mr zeppeling is way off and its played on an electric and the end is on a 12 stringjust copy and paste mine and take out the pretzleman in word of something but this is strait out of my book and i included everything expecially a complete intro (the best part) so enjoy
-1   August 1 2007, 10:24 pm by Dragforce92 |
I cant believe that this song lost its No. 1 Spot to Hey there Delilah and is losing now to the green day simpsons intro. I love the simpsons on tv but the movie sucked dont see it.
-2   August 2 2007, 11:07 am by supea |
what's this hey there delidah? It's crap! And wtf? Simpsons No. 2? It got like 5 comments... I think there's someone cheating... Fucking hey there D|LDOLAH i mean delilah
-2   August 3 2007, 07:45 pm by Guitar_man191 |
u guys sound like a load of C-R-A-P reapeat after me CRAP
August 4 2007, 02:51 pm by JukeB0X Hero |
could someone please private message me the meaning of something like 7(9)? does that mean to hit the note, bend, hit it agn, then release?
thanks in advance
August 4 2007, 02:55 pm by JukeB0X Hero |
also,stuck at g 14--//--//--//
what do the double slide symbols mean when continued with a note such as this? please and thanks
August 8 2007, 09:55 am by digital_smurf |
The intro for the first tab is wrog... well there are bits missing. Which of the 6 that are up are right. I don't understand why 3000 people give it a 5 star if it is just plain wrong?????
Not knockin it it's a good tab, and someone has taken a lot of time doing them but if they're not right, they're not right
August 8 2007, 07:44 pm by barbarosa121 |
holy shit....awesome
August 8 2007, 09:50 pm by dannytalent |
amazing tab! i'd probably die for siting so long and making this tab. YOU ARE A FRIEKING GOD!
August 8 2007, 09:52 pm by dannytalent |
BTW, this guy probably got so tired he put the strings wrong for the last 3 lines of the tab. lol still amazing tho.
August 9 2007, 09:47 am by mattmonkey |
yeah, nice tab must have taken forever to make.
rock on!!
+3   August 10 2007, 10:32 pm by guitarfrk217 |
ok this tab needs more views, we cant have ****ing "hey there delilah" as the #1 and #2 most viewed tab. That is a disgrace to the guitar tabbing nation. Since this is the 3rd most viewed tab, stairway needs to step up and kick delilah's sorry ass.
+2   August 11 2007, 03:03 am by Flying Afros |
plain white t's suck ass. there song insults led zeppelin.
August 11 2007, 01:13 pm by guitarfrk217 |
hell yea flying afros boy
August 11 2007, 01:17 pm by guitarfrk217 |
and juke box dude, the (9) means that he added that just because he thought it sounds better like that, its not in the actual song and you dont have to play it.
August 11 2007, 04:59 pm by zacky.v |
you should do avenged sevenfold tab's you would be soooo good at them
August 11 2007, 08:47 pm by brett23 |
freakin amazing, this song got me like 100 buks in my neighborhood band
August 12 2007, 01:16 pm by craZelz |
i reckon this song is much better than hey there delilah
August 14 2007, 11:37 am by Woolly |
Hey there delilah is a good song but having it on numbers 1 and 2 is going too far. Why are ppl so obssesed with it?
And craZelz, only the mentally impaired dont think that this is a better song.
+1   August 17 2007, 01:42 pm by HelzAngl |
Yeah. This is a hell of a better song

GREAT TAB. 5*****
+2   August 17 2007, 07:02 pm by Guitar_man191 |
pretzleman youve got problems
August 20 2007, 02:45 pm by aenimafist |
pretzel man's is better
-11   August 20 2007, 09:21 pm by Bucketheadroolz |
why do i got problems????this is my other account and i took weeks to tab that strait out of my led zeppelin classics tab book because it was wrong and discracing spelling it zeppeling and thank you aenimafist the tab we are commenting on leaven out part of the intro which is what most people want and his solo is completely wrong. im trying to submit the tab but people keep rejecting me and thats why i pasted it here but eventually ultimate guitar will have the real tab and not have everyone learn the wrong way to play the greatest rock song ever!!!!!!!
-3   August 20 2007, 09:22 pm by Bucketheadroolz |
and for the other 3000 people who think this is a right tab they obviously dont know what there doing
-3   August 20 2007, 09:23 pm by Bucketheadroolz |
this is completely wrong and zeppling is just annoying
+2   August 22 2007, 05:00 am by deepestpurple |
You are a twat sublym611.
+1   August 22 2007, 04:45 pm by The Final Cut |
this tab is great i love how all the *******s out there always critize if its stolen or not who gives a flying **** if it is or not right? Your not a fricken plagerism expert or give damn if it is plagerized you found this tab to learn it or too look at it so all those negative bastards get your head out of your ass and congratulate this dood because if he copied it or not its still great.Even if he did congratulate him for taking the time TOO COPY IT. i dont see people take as long as this guy took to let us all have the correct version on this site. Btw nice tab :D
+2   August 23 2007, 05:27 pm by chelz |
I only knew the start bit (up in the5-7 part) and I got critisised a lot forplaying it like that and not with the chord structure THANKS FOR PROVING ME RIGHT lol now i'm gonna go back and gloat at my tutor. LMAO not really
but ta for also supplying the whole song
xx
-6   August 24 2007, 12:49 am by Bucketheadroolz |
im going to make comments on here till my stairway is accepted and my day was not ruined
-6   August 25 2007, 12:22 am by Bucketheadroolz |
ok i shall copy and paste again but better-er the 100% correct tab for fans of the song
-15   August 25 2007, 12:23 am by Bucketheadroolz |
Stairway to Heaven tab by Zed Zeppelin
Produced by Jimmy Page
Robert Plant: Vocals, Jimmy Page: All Guitars, John Paul Jones: Bass, John Bonham: Drums

Key
#h#----------------------hammer on
#p#----------------------pull off
/------------------------slide up
\------------------------slide down
^------------------------bend up
^ r----------------------bend then release
v------------------------vibrato
(#)----------------------ghost note (don’t play)

(fingerpicked)(acoustic guitar)
|----------5--7--------7-|-8--------8--2--------2-|-0--------------0-------|
|-------5--------5-------|----5-----------3-------|----1-----1--------1----|
|----5--------------5----|-------5-----------2----|-------2--------------2-|
|-7-----------6----------|-5-----------4----------|-3----------------------|
|------------------------|------------------------|------------------------|
|------------------------|------------------------|------------------------|

|----0--0----------------|-------------7--------7-|-8--------8--2--------2-|
|-0--1--1----------------|----------5-----5-------|----5-----------3-------|
|-0--2--2----------------|-------5-----------5----|-------5-----------2----|
|------------------------|----7--------6----------|-5-----------4----------|
|-2--0--0-----0-6/(8)--7-|-0----------------------|------------------------|
|------------------------|------------------------|------------------------|

|-0--------------0-------|----0--0----------------|----------0--2--------2p0-|
|----1-----1--------1----|-0--1--1----------------|----------------3---------|
|-------2--------------2-|-0--2--2----------------|-------0-----------2------|
|-3----------------------|------------------------|----2--------0------------|
|------------------------|-2--0--0---------0--2---|-3------------------------|
|------------------------|------------------------|--------------------------|

|-0--------0---------------|-------------3--------3-|-3p2--2--2--------------|
|----1--------0h1----------|-1--------1-----0-------|-3----3--3--------------|
|-------2----------2-------|----0--------------0----|-2----0--0--------------|
|-3------------------------|----2--2----------------|-0----0--0--------------|
|-------------0-------0--2-|-3----------------------|-----------------0--2---|
|--------------------------|-------------3----------|------------------------|

|----------0--2--------2p0-|-0--------0-------------|-------------2--------2-|
|----------------3---------|----1--------0----------|----------1--------3----|
|-------0-----------2------|-------2--------2-------|-------0--------2-------|
|----2--------0------------|-3----------------------|----2--------0----------|
|-3------------------------|-------------0-----0--2-|-3----------------------|
|--------------------------|------------------------|------------------------|

|-0--0--0----------------|----------5--7--------7-|-8--------8--2--------2-|
|-1--1--1----------------|-------5--------5-------|----5-----------3-------|
|-2--2--2----------------|----5--------------5----|-------5-----------2----|
|-3--3--3----------------|-7-----------6----------|-5-----------4----------|
|------------------------|------------------------|------------------------|
|------------------------|------------------------|------------------------|
______________There’s a lady whose sure all that glit-ters is gold and she’s

-10   August 25 2007, 12:23 am by Bucketheadroolz |
|-0--------------0-------|------------------------|----------5--7--------7-|
|----1-----1--------1----|-0--1--1----------------|-------5--------5-------|
|-------2--------------2-|-0--2--2----------------|----5-----------5--5----|
|-3----------------------|------------------------|-7-----------6----------|
|------------------------|-2--0--0----------------|------------------------|
|------------------------|------------------------|------------------------|
Buy - ing the stairway to heav - (en) When she gets there she knows if the


|-8--------8--2--------2-|----0--------0---------|------------------------|
|----5-----------3-------|----1-----1-----1------|-0--1--1----------------|
|----5--5--------2--2----|----2--2-----------2p0-|-0--2--2----------------|
|-5-----------4----------|-3---------------------|-2--0--0---------0--2---|
|------------------------|-----------------------|------------------------|
|------------------------|-----------------------|------------------------|
Stores are all closed with a word she can get what she came for


|-------------2--------2-|-0--------0----------------|-------------3--------3-|
|----------1-----3-------|----1--------1--0----------|-1--------1-----0-------|
|-------0-----------2----|-------2-----------2-------|----0--------------0----|
|----2--------0----------|-3-------------------------|-------2----------------|
|-3----------------------|----------------0-----0--2-|-3----------------------|
|------------------------|---------------------------|-------------3----------|
________Ooo,______________________________________and she’s buy - ing a stair - way to


|-3p2--2--2--------------|----------0--2--------2-|-0-----------------------|
|-3----3--3--------------|----------------3-------|----1-----1--0-----------|
|-2----0--0--------------|-------0-----------2----|-------2--------2--------|
|-0----0--0--------------|----2--------0----------|-3-----------------------|
|-----------------0--2---|-3----------------------|-------------------0--2--|
|------------------------|------------------------|-------------------------|
_Heav - (en) There’s a sign on the wall but she wants to be sure ‘cause you


|-------------2--------2-|-0--0--0----------------|----------5--7--------7-|
|----------1--------3----|-1--1--1----------------|-------5--------5-------|
|-------0--------2-------|-2--2--2----------------|----5--------------5----|
|----2--------0----------|-3--3--3----------------|-7-----------6----------|
|-3----------------------|------------------------|------------------------|
|------------------------|------------------------|------------------------|
Know sometimes words have to mean - ings In a tree by the brook there’s a


|-8--------8--2--------2-|-0--------------0-------|------------------------|
|----5-----------3-------|----1-----1--------1----|-0--1--1----------------|
|-------5-----------2----|-------2--------------2-|-0--2--2----------------|
|-5-----------4----------|-3----------------------|-0--0--0----------------|
|------------------------|------------------------|-2--0--0------0--/8---7-|
|------------------------|------------------------|------------------------|
Song bird who sings sometimes all of our thoughts are mis-giv - en


|----------5--7-------7-------|-------5-----------2-------|-------0--------------0-----|
|-------5-------5---5---5-----|-----5---5-------3---3-----|-----1----1---------1---1---|
|----5------------5-------5---|---5-------5-----------2---|---2--------2-----2-------2-|
|-7-----------6-------------6-|-5-----------5-4---------4-|-3------------3-3-----------|
|-----------------------------|---------------------------|----------------------------|
|-----------------------------|---------------------------|----------------------------|
-9   August 25 2007, 12:24 am by Bucketheadroolz |
|-----------------------|-3--3-3-3--3----0----3--|-2-------2----2--2--------|
|-0--1--1------------3--|-1--1-1-1--1----1----3--|-3-------3--3-3--3----1p0-|
|-0--2--2------------0--|-0--0-0-0--0----0----0--|-2-------2--2-2--2----0---|
|-0--0--0------------0--|-2--2-2-2--2----2----0--|-0----0-----0-0--0----2p0-|
|-2--0--0------------2--|------------------------|------0-------------------|
|-----------------------|------------------------|--------------------------|
___________________________________________________Ooo,______It makes me won-


|----3-3-3--3-----0-----7--|-x--5--x--3--x--5--------|-3--3-3-3--3-----0-----0--|
|-1--1-1-1--1--x--1--x--8--|-x--7--x--5--x--7--------|-1--1-1-1--1--x--1--x--3--|
|-0--0-0-0--0--x--0--x--9--|-x--7--x--5--x--7--7-----|-0--0-0-0--0--x--0--x--0--|
|-2--2-2-2--2--x--2--x--0--|-------------------------|-2--2-2-2--2--x--2--x--0--|
|--------------------------|----------------------0--|--------------------------|
|--------------------------|-------------------------|--------------------------|
__Der____________________________________________________Ooo,_________________________


|----2------------2-2---------|----3-3-3--3p0---0-----7--|-x--5--x--3--x--5--5--|
|-x--3--------3---3-3-3--1-0--|-1--1-1-1--1--x--1--x--8--|-x--7--x--5--x--7-----|
|-x--2--2-----0h2-2-2-2--0-0--|-0--0-0-0--0--x--0--x--9--|-x--7--x--5--x--7-----|
|-x--0-----0-------------2-0--|-2--2-2-2--2--x--2--x--0--|----------------------|
|-----------------------------|--------------------------|----------------------|
|-----------------------------|--------------------------|----------------------|
________makes me wonder_____________________________________________________________There’ a


|------------------------|-------------------------|----------------------0--|
|----------1-----------3-|-0h1-------------1-------|----------1-----------1--|
|-------0-----------0----|-----2--------2----------|-------0-----------0--2--|
|----2-----------0-------|-----------2-------------|----2-----------0-----3--|
|-3-----------2----------|--------0-----------0--2-|-3-----------2--------3--|
|------------------------|-------------------------|----------------------1--|
Feel - ing I get when I look to the west and my spir - it is crying for leav-


|--0-----------------|------------------------|----------------------------|
|--1-----------------|----------1-----------3-|-0h1---------------1--------|
|--2-----------------|-------0-----------0----|------2---------2-----------|
|--2-----------------|----2-----------0-------|------------2---------------|
|--0------------0--2-|-3-----------2----------|---------0-------------0--2-|
|--------------------|------------------------|----------------------------|
___-ing _________In my thoughts I have seen rings of smoke through the trees and the


|----------------------0--|--0-----------------|------------------------|
|----------1-----------1--|--1-----------------|----------1-----------3-|
|-------0-----------0--2--|--2-----------------|-------0-----------0----|
|----2-----------0-----3--|--2-----------------|----2-----------0-------|
|-3-----------2--------3--|--0------------0--2-|-3-----------2----------|
|----------------------1--|--------------------|------------------------|
Voices of those who stand look - ing


|-3--3-3-3--3------0-----0--|----2-------------0h2-2-2-2------|-3--3-3-3--3--0-0-0--0-0-7-|
|-1--1-1-1--1--x-x-1-----3--|----3-------------3---3-3-3--0-1-|-1--1-1-1--1--x-x-1--x-x-8-|
|-0--0-0-0--0--x-x-0--0--0--|-0--2-------------2---2-2-2--0-0-|-0--0-0-0--0--0-0-0--0-0-9-|
|-2--2-2-2--2--x-x-2--2--2--|-------------0---------------0-2-|-2--2-2-2--2--x-x-2--x-x-0-|
|------------------------0--|---------------------------------|---------------------------|
|---------------------------|---------------------------------|---------------------------|
_______________Ooo,_______________ It makes me won - der
-9   August 25 2007, 12:24 am by Bucketheadroolz |
|--x-x-5--x-x-3--x-x-5----5-----|-3--3-3-3--3------0-----0--|-x--2--2----2------2------|
|--x-x-7--x-x-5--x-x-7--7-7-----|-1--1-1-1--1--x-x-1-----3--|-x--3--3----3--x-x-3--0-1-|
|--x-x-7--x-x-5--x-x-7--7-7-----|-0--0-0-0--0--x-x-0--x--2--|-0--2--2----2--x-x-2--0-0-|
|-------------------------------|-2--2-2-2--2--x-x-2--x--0--|---------0-----x-x----0-2-|
|----------------------------0--|---------------------------|--------------------------|
|-------------------------------|---------------------------|--------------------------|
_________________________________Ooo,___________________________(it)really makes me wonder(now)


|-3----3--3--3----3----0--0--0----0--0--7----|-x----5----x----3----x----5-------------|
|-1----1--1--1----1----x--x--1----x--x--8----|-x----7----x----5----x----7-------------|
|-0----0--0--0----0----0--0--0----0--0--9----|-x----7----x----5----x----7-------------|
|-2----2--2--2----2----x--x--2----x--x--0----|----------------------------------------|
|--------------------------------------------|-----------------------------------2----|
|--------------------------------------------|----------------------------------------|
________________________________________________________________________________________And it’s


|------------------------|--------------------------|----------------------0--|
|----------1-----------3-|-0-1--------------1-------|----------1-----------1--|
|-------0-----------0----|------2--------2----------|-------0-----------0--2--|
|----2-----------0-------|------------2-------------|----2-----------0-----3--|
|-3-----------2----------|---------0-----------0--2-|-3-----------2--------3--|
|------------------------|--------------------------|----------------------1--|
__Whis - per that soon if we all call the tune then thepi - per will lead us to reas-


|--0-----------------|------------------------|--------------------------|
|--1-----------------|----------1-----------3-|-1---------------1--------|
|--2-----------------|-------0-----------0----|----2---------2-----------|
|--2-----------------|----2-----------0-------|------------2-------------|
|--0------------0--2-|-3-----------2----------|---------0-----------0--2-|
|--------------------|------------------------|--------------------------|
__on _____________And a new day will dawn______for those who stand long and the


|----------------------0--|--0-----------------|------------------------|
|----------1-----------1--|--1-----------------|----------1-----------3-|
|-------0-----------0--2--|--2-----------------|-------0-----------0----|
|----2-----------0-----3--|--2-----------------|----2-----------0-------|
|-3-----------2--------3--|--0------------0--2-|-3-----------2----------|
|----------------------1--|--------------------|------------------------|
for - ests will ech-o with laugh - ter


|-3--3-3-3--3--0-0-0--0-0-0--|-----2--2-2----2--2-2-2--2-0--|-3--3-3-3--3--0-0-0--0-0-7--|
|-1--1-1-1--1--x-x-1--x-x-3--|-x-x-3--3-3----3--3-3-3--3-0--|-1--1-1-1--1--x-x-1--x-x-8--|
|-0--0-0-0--0--0-0-0--0-0-0--|-x-x-2--2-2----2--2-2-2--2-0--|-0--0-0-0--0--0-0-0--0-0-9--|
|-2--2-2-2--2--x-x-2--x-x-0--|-x-x-0------0-----------------|-2--2-2-2--2--x-x-2--x-x-0--|
|-0--------------------------|------------------------------|-0--------------------------|
|----------------------------|------------------------------|----------------------------|


|-x--5--x--3--x--5--5-----|-3--3-3-3--3--x-x-0--x--x--|-x--2--------x-x-2--0-0--|
|-x--7--x--5--x--7--7-----|-1--1-1-1--1--x-x-1--x--3--|-x--3--------x-x-3--0-0--|
|-x--7--x--5--x--7--7-----|-0--0-0-0--0--x-x-0--x--0--|-x--2--------x-x-2--0-0--|
|-------------------------|-2--2-2-2--2------2-----0--|----0------------0-------|
|----------------------0--|---------------------------|-------------------------|
|----------------------0--|---------------------------|-------------------------|
________________________________________________________Oh,________________
-9   August 25 2007, 12:25 am by Bucketheadroolz |
|-3--3-3-3--3--0-0-0--0-0-7--|-x--5--x--3--x--5--5-----|------------------------|
|-1--1-1-1--1--x-x-1--x-x-8--|-x--7--x--5--x--7--7-----|----------1-----------3-|
|-0--0-0-0--0--0-0-0--0-0-9--|-x--7--x--5--x--7--7-----|-------0-----------0----|
|-2--2-2-2--2--x-x-2--x-x-0--|-------------------------|----2-----------0-------|
|-0--------------------------|----------------------2--|-3-----------2----------|
|----------------------------|-------------------------|------------------------|
_________________________________________________________________If there’s a bustle in your


|-------------------------|------------------------0--|--0-----------------|
|-0h1-------------1-------|----------1-------------1--|--1-----------------|
|-----2--------2----------|-------0-------------0--2--|--2-----------------|
|-----------2-------------|----2-------------0-----3--|--2-----------------|
|--------0-----------0--2-|-3-------------2--------3--|--0------------0--2-|
|-------------------------|------------------------1--|--------------------|
Hedgerow don’t be alarmed now it’s just a spring clean for the _____________May - queen


|------------------------|--------------------------|------------------------0--|
|----------1-----------3-|-0h1--------------1-------|----------1-------------1--|
|-------0-----------0----|------2--------2----------|-------0-----------0----2--|
|----2-----------0-------|------------2-------------|----2-----------0-------3--|
|-3-----------2----------|---------0-----------0--2-|-3-----------2----------3--|
|------------------------|--------------------------|------------------------1--|
Yes there are two paths you can go by but in the long run there’s still time to change the road


|--0-----------------|------------------------|-3--3-3-3-3-3----0----0--|
|--1-----------------|----------1-----------3-|-1--1-1-1-1-1----1----3--|
|--2-----------------|-------0-----------0----|-0--0-0-0-0-0----0----0--|
|--2-----------------|----2-----------0-------|-2--2-2-2-2-2----2----0--|
|--0------------0--2-|-3-----------2----------|-0-----------------------|
|--------------------|------------------------|-------------------------|
_You’re on___


|----2--2----2--2--2---0--0--|-3----3-3--3----0----7--|----5----3----5--5\----|
|----3--3----3--3--3---0--0--|-1----1-1--1----1----8--|----7----5----7--7\----|
|----2--2----2--2--2---0--0--|-0----0-0--0----0----9--|----7----5----7--7\----|
|----0-----------------------|-2----2-2--2----2----0--|-----------------0-----|
|----------------------------|-0----------------------|-----------------0--2--|
|----------------------------|------------------------|-----------------------|
________________And it makes me______won - der


|-3--3-3-3-3-3----0----0--|----2--2----2-2-2--0-0--|-3----3-3--3----0----7--|
|-1--1-1-1-1-1----1----3--|----3--3----3-3-3--0-0--|-1----1-1--1----1----8--|
|-0--0-0-0-0-0----0----0--|----2--2----2-2-2--0-0--|-0----0-0--0----0----9--|
|-2--2-2-2-2-2----2----0--|----0-------------------|-2----2-2--2----2----0--|
|-0-----------------------|------------------------|-0----------------------|
|-------------------------|------------------------|------------------------|
__________________________________Ahh._______________________


|----5--3--5-5\--|-0-----------3----------|--------------------------|
|----7--5--7-7\--|----------1-----------3-|-0h1--------------1-------|
|----7--5--7-7\--|-------0-----------0----|------2--------2----------|
|----------------|----2-----------0-------|------------2-------------|
|------------0-2-|-3-----------2----------|---------0-----------0--2-|
|----------------|------------------------|--------------------------|
____________________Your head is humming and it won’t go in case you don’t know
-6   August 25 2007, 12:25 am by Bucketheadroolz |
|-0-----------3--------0--|--0-----------------|-0-----------3----------|
|----------1-----------1--|--1-----------------|----------1-----------3-|
|-------0-----------0--2--|--2-----------------|-------0-----------0----|
|----2-----------0-----3--|--2-----------------|----2-----------0-------|
|-3-----------2--------3--|--0------------0--2-|-3-----------2----------|
|----------------------1--|--------------------|------------------------|
____The piper’s calling you to join him_____________Dear lady can you hear the wind


|-------------------------|-0-------------3--------0--|--0-----------------|
|-0h1-------------1-------|----------1-------------1--|--1-----------------|
|-----2--------2----------|-------0-------------0--2--|--2-----------------|
|-----------2-------------|----2-------------0-----3--|--2-----------------|
|--------0-----------0--2-|-3-------------2--------3--|--0------------0--2-|
|-------------------------|------------------------1--|--------------------|
___Blow _____and did you know you stairway lies on the whis - ‘prin’ wind_______


|-0-----------3-----------3--|--2---------------------------0--2--2-|
|----------1-----------0--0--|--3---------------------------3--3--3-|
|-------0-----------0--0--0--|--2---------------------------2--2--2-|
|----2--2--------0--0--0--0--|--0---------------------------0--0--0-|
|-3-----------2--------2--2--|--------------------------------------|
|----------------------------|--------------------------------------|
_________________Oh.________________________


|----3---0--2--2--3----0--2--2-|--3---3---2---|--3----0---2----2--2---0----|
|----3---3--3--3--3----3--3--3-|--3---3---3---|--3----3---3----3--3---3----|
|----2---2--2--2--2----2--2--2-|--2---2---2---|--0----0---0----0--0---0----|
|----0---0--0--0--0----0--0--0-|--0---0---0---|--2----2---2----2--2---2----|
|------------------------------|--------------|--3----3---3----3--3---3----|
|------------------------------|--------------|----------------------------|


|----3---3--2----2-2--0----0---0-2-|---3----0--2-3----0-2-|---3---3---2---0-|
|----3---3--3----3-3--3----3---3-3-|---3----3--3-3----3-3-|---3---3---3---3-|
|----0---0--0----0-0--0----0---2-2-|---2----2--2-2----2-2-|---2---2---2---0-|
|----2---2--2----2-2--2----2---0-0-|---0----0--0-0----0-0-|---0---0---0---2-|
|----3---3--3----3-3--3----3-------|----------------------|---------------3-|
|----------------------------------|----------------------|-----------------|


|--------2----2--2----0----0------|---------------------------------|
|--------3----3--3--------------3-|-0---3---3---3---3---3---3-----3-|
|--------0----0--0----------------|-0---0---0---0---0---0---0-----0-|
|--------2----2--2----------------|-0---0---0---0---0---0---0-----0-|
|--------3----3--3----------------|-2---2---2---2---2---2---2-----2-|
|---------------------------------|---------------------------------|
-9   August 25 2007, 12:26 am by Bucketheadroolz |
SOLO
(electric 6 string)
|------5-----------------------|
|--------8-5-------------------|
|-7^---------7-5---7-5---------|
|----------------7-----7-5-3-3-|
|------------------------------|
|------------------------------|


|---------------------------------10-|
|------13-13-13^--13-10-----10-13----|
|-12^-------------------/12----------|
|------------------------------------|
|------------------------------------|
|------------------------------------|


|-----------------|
|-13-10-8----8-10-|
|---------10------|
|-----------------|
|-----------------|
|-----------------|


|-----5-------------------------------------|
|-------8-5---------------------------------|
|-7^--------7-5---7-5-----------5---5-5-----|
|---------------7-----7-5---5-7---7-----5\3-|
|-------------------------7-----------------|
|-------------------------------------------|


|-5---------------------------|
|---8-5-----------------------|
|-------7-5---7-5-------------|
|-----------7-----7-5-7-5-----|
|-------------------------8-8-|
|-----------------------------|


|--------------------------------|
|-------5-------------8-------15-|
|-----5---7-5---5-7/9---12-14----|
|-/7----------7------------------|
|--------------------------------|
|--------------------------------|


|----------------------15^--15-12--------------|
|-15^---15-13-15-13-13------------15^-15-13----|
|-------------------------------------------14-|
|----------------------------------------------|
|----------------------------------------------|
|----------------------------------------------|
-7   August 25 2007, 12:26 am by Bucketheadroolz |
|-------------------------------------------------------|
|-13-15^r-13----13-15^r-13----13-15^r-13----13-15^r-13--|
|------------14------------14------------14-------------|
|-------------------------------------------------------|
|-------------------------------------------------------|
|-------------------------------------------------------|


|----------------------------------------------------------|
|----13-15^r-13----13-15^r-13----13-15^r-13----13-15^r-13--|
|-14------------14------------14------------14-------------|
|----------------------------------------------------------|
|----------------------------------------------------------|
|----------------------------------------------------------|


|-----------------------------------15^-|
|----13-15^r-13----13-15^r-13----13-----|
|-14------------14------------14--------|
|---------------------------------------|
|---------------------------------------|
|---------------------------------------|


|-12-15-12------------------------------15-|
|----------15-12----13-15-13----13-15^-----|
|----------------14----------14------------|
|------------------------------------------|
|------------------------------------------|
|------------------------------------------|


|----------------------------|
|-15^r--p13--14-14v------14/-|
|----------------------------|
|----------------------------|
|----------------------------|
|----------------------------|
|
|(electric 6 string)
|-------------------------------|
|--------------13\-12--13\-(10)-|
|-------------------------------|
|-------------------------------|
|-------------------------------|
|-------------------------------|


|------15-17-15----------------------------|
|-15^-----------15^-15-13-15-13----13-15^v-|
|-------------------------------14---------|
|------------------------------------------|
|------------------------------------------|
|------------------------------------------|
|
|-----------------------------------------------------------|
|------------------------------------------13\-12--13\-(10)-|
|-----------------------------------------------------------|
|-----------------------------------------------------------|
|-----------------------------------------------------------|
|-----------------------------------------------------------|
-10   August 25 2007, 12:27 am by Bucketheadroolz |
|----------------------------|
|-11^---11^--10----10--------|
|---------------12----12-12v-|
|----------------------------|
|----------------------------|
|----------------------------|
|
|----------------------------------------------------|
|-----------------------------------13\-12--13\-(10)-|
|----------------------------------------------------|
|----------------------------------------------------|
|----------------------------------------------------|
|----------------------------------------------------|



|---------------------------|
|-8^----7^r--5-7------------|
|----------------7/9\7--5---|
|-------------------------7-|
|---------------------------|
|---------------------------|
|
|------------------------------------------|
|-------------------------13\-12--13\-(10)-|
|------------------------------------------|
|------------------------------------------|
|------------------------------------------|
|------------------------------------------|


|----20-17----20-17----20-17----20-17-20-17----20^-|
|-17-------17-------17-------17-------------17-----|
|--------------------------------------------------|
|--------------------------------------------------|
|--------------------------------------------------|
|--------------------------------------------------|
-7   August 25 2007, 12:27 am by Bucketheadroolz |
ENDING
(electric 12 string)
|-5--5--------3--3--------|-1----1----1----1----1---3--|-5--5--------3--3--------|
|-5--5--------3--3--------|-1----1----1----1----1---3--|-5--5--------3--3--------|
|-5--5--------4--4--------|-2----2----2----2----2---4--|-5--5--------4--4--------|
|-7--7--------5--5--------|-3----3----3----3----3---5--|-7--7--------5--5--------|
|-7--7--------5--5--------|-3----3----3----3----3---5--|-7--7--------5--5--------|
|-5--5--------3--3--------|-1----1----1----1----1---3--|-5--5--------3--3--------|
And as we wind on down the road_______________________our shadows taller than our soul


|-1----1----1----1----1-3--|-5--5--------5--3--3------|-1----1----1----1----1--3-|
|-1----1----1----1----1-3--|-5--5--------5--3--3------|-1----1----1----1----1--3-|
|-2----2----2----2----2-4--|-5--5--------5--4--4------|-2----2----2----2----2--4-|
|-3----3----3----3----3-5--|-7--7--------7--5--5------|-3----3----3----3----3--5-|
|-3----3----3----3----3-5--|-7--7--------7--5--5------|-3----3----3----3----3--5-|
|-1----1----1----1----1-3--|-5--5--------5--3--3------|-1----1----1----1----1--3-|
_________________________________There walks a la - dy we all know_________


|-5--5--------3--3--------|-1----1----1----1----1-3--|-5--5--------5--3--3-------|
|-5--5--------3--3--------|-1----1----1----1----1-3--|-5--5--------5--3--3-------|
|-5--5--------4--4--------|-2----2----2----2----2-4--|-5--5--------5--4--4-------|
|-7--7--------5--5--------|-3----3----3----3----3-5--|-7--7--------7--5--5-------|
|-7--7--------5--5--------|-3----3----3----3----3-5--|-7--7--------7--5--5-------|
|-5--5--------3--3--------|-1----1----1----1----1-3--|-5--5--------5--3--3-------|
who shines white light and wants to show___ how everything still turns to


|-1----1----1----1----1-3--|-5--5--------5--3--3------|-1----1----1----1----1--3-|
|-1----1----1----1----1-3--|-5--5--------5--3--3------|-1----1----1----1----1--3-|
|-2----2----2----2----2-4--|-5--5--------5--4--4------|-2----2----2----2----2--4-|
|-3----3----3----3----3-5--|-7--7--------7--5--5------|-3----3----3----3----3--5-|
|-3----3----3----3----3-5--|-7--7--------7--5--5------|-3----3----3----3----3--5-|
|-1----1----1----1----1-3--|-5--5--------5--3--3------|-1----1----1----1----1--3-|
___gold__________________________And if you lis-ten ve-ry hard___________


|-5--5--------5--3--3------|-1----1----1----1----1--3-|-5--5--------3--3----1----|
|-5--5--------5--3--3------|-1----1----1----1----1--3-|-5--5--------3--3----1----|
|-5--5--------5--4--4------|-2----2----2----2----2--4-|-5--5--------3--3----2----|
|-7--7--------7--5--5------|-3----3----3----3----3--5-|-7--7--------5--5----3----|
|-7--7--------7--5--5------|-3----3----3----3----3--5-|-7--7--------5--5----3----|
|-5--5--------5--3--3------|-1----1----1----1----1--3-|-5--5--------3--3----1----|
_____the tune will come to you at last_________________________when all are one and one is all


|--------------------------|-5--5--------3--3----1----|--------------------------|
|--------------------------|-5--5--------3--3----1----|--------------------------|
|--------------------------|-5--5--------3--3----2----|--------------------------|
|--------------------------|-7--7--------5--5----3----|--------------------------|
|--------------------------|-7--7--------5--5----3----|--------------------------|
|--------------------------|-5--5--------3--3----1----|--------------------------|
_____________yeah_ to be a rock and not to roll________________________________


|----5--5----3----3----|--0--------------------|--5----5-----3----3-----|
|----5--5----3----3----|--1----1--------3-3-3--|--5----5-----5----5-----|
|----5--5----5----5----|--2----2--------4-4-4--|--5----5-----5----5-----|
|----7--7----5----5----|--3----3--------5-5-5--|--7----7-----5----5-----|
|----7--7----3----3----|--3----3--------5-5-5--|--7----7-----3----3-----|
|----5--5----3----3----|--1----1--------3-3-3--|--5----5-----3----3-----|
______________________________________________________________________
-6   August 25 2007, 12:27 am by Bucketheadroolz |
|----0--------------------------------3--3--3--|--5----5-----3----3-----|
|----1----1---------------------------4--4--4--|--5----5-----5----5-----|
|----2----2---------------------------5--5--5--|--5----5-----5----5-----|
|----3----3---------------------------5--5--5--|--7----7-----5----5-----|
|----3----3---------------------------5--5--5--|--7----7-----3----3-----|
|----1----1---------------------------3--3--3--|--5----5-----3----3-----|


|----0-------------3--3--3--|--5----5-----3----3-----|--1---------------|
|----1----1--------4--4--4--|--5----5-----5----5-----|--1---------------|
|----2----2--------5--5--5--|--5----5-----5----5-----|--2---------------|
|----3----3--------5--5--5--|--7----7-----5----5-----|--3---------------|
|----3----3--------5--5--5--|--7----7-----3----3-----|--3---------------|
|----1----1--------3--3--3--|--5----5-----3----3-----|--1---------------|
____________________________________________________________And she’s


|--------------------------|--------------------------|--------------------------|
|--------------------------|--------------------------|--------------------------|
|--------------------------|--------------------------|--------------------------|
|--------------------------|--------------------------|--------------------------|
|--------------------------|--------------------------|--------------------------|
|--------------------------|--------------------------|--------------------------|
__Buy - ing a ___________stair - way_______________to heav - en______
-4   August 25 2007, 05:39 pm by Bucketheadroolz |
once again im posting here and my tab wa DeNiEd AGAIN!?!?!
why is this happening????
-1   September 4 2007, 01:31 pm by t0oicy4u |
this is the best
-1   September 5 2007, 01:46 am by Acadaca123 |
great tab man
-9   September 5 2007, 03:19 am by guitar champ104 |
cool tab but..... its too good! lol 1000000000000000000000000000000000000000000000000000000000000000000000000000000000000000000000 out of 2!!!!111!1

lollies!
-2   September 5 2007, 11:25 pm by pratt14 |
www.all-new-releases.blogspot.com
-3   September 7 2007, 07:41 pm by Frodo17 |
there are many mistakes with the intro and coures
September 7 2007, 08:53 pm by k00kie M0nster |
Led Zeppeling lol. Anyway this rocks
-2   September 8 2007, 01:32 am by mlb9boston |
led zepplin is 7ukn awsome
September 8 2007, 05:17 pm by k00kie M0nster |
woot 3087th voter.
+1   September 8 2007, 07:27 pm by kennydabomb |
guys! get off his case about the miss spelling of the name! jeez i think he got it after the 7 BILLIONTH TIME!
-8   September 10 2007, 10:09 pm by Bucketheadroolz |
mine is perfect the other is not!
-1   September 12 2007, 07:06 pm by JohnRzeznik221 |
wow this thing has alot of comments lol
September 14 2007, 07:34 pm by Paddyo3584 |
"led zeppeling" is what you do when u play a led zepplin song its a verb i think.
ex. John, Dave and I were led zeppeling this afternoon when we covered "ten years gone"
-2   September 15 2007, 04:45 am by dirka_monkey |
dude I had no Idea his song was actually that fun when I first headr it I thought it was kinda simple but obviously not I will have much fun learning to play this song
September 15 2007, 11:36 pm by Bucketheadroolz |
lol that was funny it does sound like a verb :)
September 18 2007, 06:02 pm by flamin frets13 |
Jimmy and i Led Zeppeled over and bought a Led Zeppelin CD
September 20 2007, 01:41 pm by _InsanitY_ |
lol im 2 busy led zeppling on my guitar =D
September 21 2007, 04:42 am by dridge-fender |
People have said you copied this, but that is a good thing cos we can't afford all the guitar books. Great tab!
-3   September 22 2007, 01:57 pm by veniceking |
you know whats funny? he got this whole tab right and he spelt the bands name wrong, hehe
-2   September 23 2007, 02:02 am by Zolrak |
Bucketheadroolz's version is better :O
-1   September 23 2007, 10:09 am by njdmaster |
We know he cheated and got it from the book and its more than likely he copied it as he is not registered and would want credit but hey ho good song and a suspiciously 100% right tab :)
+1   September 24 2007, 06:47 am by kiewa25 |
ok so im only commenting so i can be number 800...lol its an absolutely mad ass tab tho...keep rocking man
+3   September 24 2007, 08:15 am by Nickelbitch |
amazing tab
+4   September 24 2007, 11:01 am by Led-Zep |
Best rock song ever. Best guitar intro ever. Best guitar solo ever.
-5   September 25 2007, 05:45 pm by Paddyo3584 |
led zeppeling: verb?
+2   September 26 2007, 08:21 pm by chalkles |
sweet. my dad aways plays that song and he would never tell me how to play it.
-3   September 27 2007, 08:31 pm by Bucketheadroolz |
kenny get mine its right!!!!
-3   September 27 2007, 09:58 pm by Mit Wasser |
amazing tab, but Led-Zep, not the best rock song, or intro, or solo
September 28 2007, 07:14 am by I Love Tea |
The aim of tabs is to be correct right?
If he took it from a book it would be correct right...so what difference does it make....it's better if it is from a book.

Great Tab.
September 29 2007, 06:21 pm by linkinparkboy58 |
GUYS GUYS!!!! THIS IS COPIED FROM BOOK NOT A GREAT TAB
-2   September 30 2007, 09:19 am by supea |
sorry guys.. i didn't write that ^
September 30 2007, 02:38 pm by the_messenger66 |
dude, i'm comment #811....
creepy, in a way. Great f**king tab by the way.
-2   October 7 2007, 02:04 am by tamotots |
lol... gr8 tab!
October 8 2007, 05:21 pm by guitar_eric |
nicely done
October 10 2007, 10:56 am by luis izaguirre |
this tab is AWSOME!!! i just figured out how tomplay the solo. the solo is awsome it sound perfect!!!!
October 11 2007, 06:04 am by bassplaya53 |
how the hell did u do that?!
October 11 2007, 03:11 pm by angusrokks |
why is everyone randomly putting massive spaces between comments its so immature
and why is everyone making entire song corrections this tab is 99.9999999999999999% correct cos no on plays it like Jimmy only he is 100% correct
October 11 2007, 06:29 pm by asamp96 |
dude ur a rock god
October 15 2007, 10:35 am by dragonball |
this song rocks
October 15 2007, 10:36 am by dragonball |
Why it is tabbed Unregistered ???????
-2   October 17 2007, 08:17 pm by Hanz456 |
my guitar teacher has done some back up gigs for Zepp, and is a personal friend of Jimmy page. A very nice effort, but wrong tab my friend
October 18 2007, 05:41 pm by mister bass guy |
K EVERYONE LISTEN!!! THIS SONG'S GONNA BE ON GUITAR HERO 3 IM NOT EVEN KIDDING!!!
-1   October 18 2007, 05:41 pm by mister bass guy |
U CAN CHOP MY NUTS OFF IF IM WRONG!!!
October 20 2007, 03:24 pm by carrotcake |
not only is this comment box lengthy, it's f***in wide!
October 24 2007, 07:30 pm by Aikoj |
God, people need to learn how to note stretch a page.
And also, great job, some of these parts sound great, some of them on certain strings don't, so I'm assuming that is a problem of my own, and I will not criticize you for that like most would O_o.
Thanks for tabbing this, great work ;).
October 27 2007, 02:11 am by t1rider |
This tab is absolutely amazing and quite hard to play i might add. This had to of taken you hours to make and theres only one reason for that.... its frickin jimmy page!! the god of all gods except for god himself :P. Well all i have to say is this tab is a definite 5 for me. Led Zeppeling lmfao!!!!!!!!!!!!!!!!!!!!!!!!!!!
November 3 2007, 12:58 am by stariv |
its as if Jimmy page wrote it himself haha good work.
November 3 2007, 08:56 pm by Paddyo3584 |
1) led zeppeling is a verb
2) the nig spaces between comments piss me off
3) what the hell difference does it make if it came from a book or not? the goal is to get the most accurate version of the song you can, so if hes taking it from a book hes saving you the money of buying it yourself.
amazing tab i wish i could play it
November 3 2007, 08:59 pm by Paddyo3584 |
ps i dont know wht "the nig" is supposed to mean i got a pop-up while i was typing it, that messes up my computer wwhen im typing. it should say "the people writing". it looks kinda racist but its not.
November 7 2007, 09:14 am by t0os |
great work thx
November 9 2007, 02:00 pm by Bucketheadroolz |
i would get a led zeppeling head-ache if i read all these comments
November 9 2007, 06:36 pm by OLPplayer99 |
cool tab. exactly the same way i learned it. Led Zeppelin reunion tour coming up!!!!!!!!!!!!!!! MOTHERSHIP CD out!!!
Long Live Led Zep!
November 9 2007, 09:10 pm by smorl7 |
good tab. man its big
November 16 2007, 06:36 pm by Guitardude22 |
Freakin Awsome tab dude it rocks its funny how u mispelled led zepplin lol
November 19 2007, 02:45 am by black amendment |
This is Led Zepplin at their greatest! AMAZING TAB!!!!
-2   November 19 2007, 08:07 pm by bgarnham |
look at this http://www.myspace.com/doctorrobinson
November 19 2007, 08:10 pm by canadianeh? |
HOLY CRAP...thats all
November 20 2007, 05:42 pm by Metalhead7714 |
nice man.

i alredy knew how to pla it along time ago by ear, but i lookat this tab. very nice.
November 23 2007, 02:15 am by WillDaThrill |
ingenious
+3   November 24 2007, 11:41 am by nirvanafreak2 |
the intro has afew mestakes but so does bucket heads but still a good tab
November 25 2007, 07:35 pm by Bucketheadroolz |
mine is flawless : out of my tab book
November 26 2007, 08:51 pm by Page/Rhoads |
Perfect, that's all I can say.
+2   November 27 2007, 04:12 am by fifapro02 |
how many ****ing people are going to comment abou him spelling the ****ing band name wrong. I mean, who gives a flying
****?!?!?! btw this tab sucks arse.....

nah im jsut messing with you. FUCKING AWESOME!!!!!!!! ROCK ON MAN. YOU SIR
ARE A FUCKING LEDGEND.
+4   November 27 2007, 02:19 pm by w000t |
jesus you have got to be 1 patient person lol this tab is amazing dont listen 2 those ppl who say it was off the book
theyre just jealous coz u can do better than them oh and evry1 shut up about the band name...posts r supposed 2 be about
the song not the band name
November 27 2007, 04:09 pm by Mream |
alright dude this is probably the best tab i have ever seen and trust me i have searched this site all over
December 3 2007, 12:49 pm by jarrett=jebus |
this TAB rules
December 4 2007, 03:29 pm by SolitaryMan |
OMG! thsi is perfect u are amazing best tab ever! u should get paid for that lol
December 5 2007, 07:00 am by Callo |
there is only one tab that matches this that ive seen so far, and thats "rain song" by led zeppelin(g) lol, its got it
all, i only wish i could play the solo. Great song though, great tab
December 12 2007, 12:33 am by ColCommunism |
Sweet, this finally overtook "Hey There Delilah."
December 12 2007, 04:11 pm by Page/Rhoads |
Back on top!!! Yes!!!!
+1   December 12 2007, 08:28 pm by Henklewinker |
wow, i cant even believe a song like hey there delilah thought they could beat stairway to heaven. haha, amazing tab
man
-1   December 12 2007, 10:34 pm by johndrox |
wtf is a led zeppeling? its led zepplin, but this is stll a good tab
-1   December 13 2007, 07:54 pm by Zeppelin Addict |
awesome! the greatest tab of the greatest song on the greatest guitar site is finally back on top, congrats zep you guys
f***ing rock!
+1   December 13 2007, 07:56 pm by Zeppelin Addict |
oh and johndrox.... your retarded its not led zepplin either.... its led zepp--->E
-34   December 13 2007, 09:35 pm by irokzworld |
THE ABSOLUTE WORST SONG EVER!!!!!!!!!!!!!!!!!!!!!!!!!!!!!!!!!!!!!!!!!









What a horrible
message.

this song shouldn't be on the top 100, it should be on the bottom 100!!!!!!!!!!!!!!!
-30   December 13 2007, 09:38 pm by irokzworld |
A BIG FAT ZERO OUT OF 1000000000000000000000000000000000000000000000!
-16   December 14 2007, 04:59 pm by johndrox |
wow you people have no life
+7   December 15 2007, 06:49 pm by hammetjunior13 |
FINALLY, ITS BACK ON #1, that stupid plain white T's song should be on the bottom 100.
+3   December 15 2007, 10:10 pm by Aaron Kovacs |
Fantastic song, *FANTASTIC* tab. Good job. It deserves the #1 spot.
-1   December 16 2007, 12:38 pm by stef123 |
Perfect tab. Anyone who thinks otherwise is a retard.
-10   December 16 2007, 05:33 pm by joyous_pain1221 |
I just did this to add another comment, I don't even listen to Led Zeppelin. I strike again! Anyone hear about that
Breakup/sara thing on addicting games? Good story huh?
+1   December 18 2007, 06:13 pm by Ibanez2427 |
wow this is nice man. i can even play it and i've only been playing for a year.
+1   December 19 2007, 01:06 am by jamesnig |
great tab easy 2 read pity there arnt 2 many more tabs like this
+1   December 19 2007, 11:24 am by bassman213293 |
hey veniceking,

we already established that he spelt Led Zeppelin wrong 800 comments ago you dumb ass, we dont
need your input. cool =)

btw great tab mate, you rock \w/

long live led zeppelin!
+1   December 20 2007, 06:26 pm by Rush_Freewill |
My bands playing this. Amazing tab. fill your head with Led! Wooohooo
December 22 2007, 12:37 am by Мцтєҳ |
i just wanted to post a comment because there is so many of them =D

oh yeah...great tab.
+1   December 24 2007, 05:36 am by EdDark |
good job
amazing song, its a leyend but everbody want to listen the same shit ever & that is so tired, all you listen
new music, be original and touch things but interesting plx :P

cya
+1   December 24 2007, 06:02 am by EdDark |
good job
amazing song, its a leyend but everbody want to listen the same shit ever & that is so tired, all you listen
new music, be original and touch things but interesting plx :P

cya
+4   December 25 2007, 05:48 pm by WANGlikestobang |
[10-18-2007 - 05:41 pm] by mister bass guy:
K EVERYONE LISTEN!!! THIS SONG'S GONNA BE ON GUITAR HERO 3 IM NOT EVEN
KIDDING!!!
[10-18-2007 - 05:41 pm] by mister bass guy:
U CAN CHOP MY NUTS OFF IF IM WRONG!!!

Did you lose your
nuts yet?

Great tab. So glad its number one again, hey there delilah does not deserve number 1 are you kidding me.
+2   December 25 2007, 10:04 pm by LEDZEPPY_ACDC_ |
You Are LEGEND!!!

This is Probably one of the Hardest songs in the world, And You've got it perfect,

Jimmy Page
will be proud,

5 stars from me,
Great job
-4   December 28 2007, 06:20 pm by ZeroSkater25 |
how are you supposed to hit the -----7 ????? im confused, and im a
------
complete noob lol help
------ plz!!!

-----6
------
------
-5   December 28 2007, 06:26 pm by ZeroSkater25 |
sorry for the double post but it was
---------7
----------
----------
---------6
----------
----------
+2   December 28 2007, 11:13 pm by gibsg1961 |
awesome this tab is 110% accurate the extra 10% is the effort i wish i could rate it higher than 5 because the song is
difficult and 5 stars all way
+4   December 29 2007, 11:20 am by dgme92 |
What's with the guys WAY up there posting full version tabs of the same song? We don't need those, this tab is perfect
as it is. 5* man.
+2   December 30 2007, 05:31 pm by yr mum |
excellent tab who cares if he coppied it or not it would have took time and effort to right it out
-3   December 31 2007, 08:06 am by Kallegubben |
Who cares if it's stolen it's ****ing awesome anyway and the mainthing is that we can play it that's what UG is for
right?
-4   January 2 2008, 04:52 am by Hawk180- |
Great tab. who actually gives a crap wheather it is stollen or not, if its right?
-2   January 2 2008, 04:44 pm by sxymnky777 |
I don't think anyone ever said that he shouldn't have stolen it
-4   January 3 2008, 05:51 pm by ColCommunism |
ZeroSkater25, fingerpick it. Use your thumb and index finger and pluck them both at the same time.
January 6 2008, 11:11 am by franZka |
this tab is amazing
thanks for do that
i'm playing it
=D

+11   January 8 2008, 07:05 pm by .:.:.Shreder.:. |
Hmm... nice tab, sounds right, nice formation ... Hmm... nothing to say but, all around great tab, keep it up.

;]
+2   January 8 2008, 07:10 pm by Alaitoc 1422 |
Perfect tab, it's the second song that I learned to play and will remain the best song that I'll play ever. Long live
Led Zeppelin and I hope they'll do a world tour!
+23   January 8 2008, 10:36 pm by rockersevenfold |
Lol the guy spelled led zeppelin wrong!Anyway Led zeppelin rules!
+2   January 13 2008, 12:08 am by bloodyderek |
thank u god for putting this man on the planet so i can finally learn how to play this song the right way.... the best
tab on this site, congrats man
+2   January 15 2008, 11:11 am by ZoSo-Creedy |
Yay! 3384th vote! 5* of course. Bloody brilliant tab, man. I hope I learn it before my performance night at school!
+2   January 15 2008, 04:41 pm by BOC15 |
I figured that ill put another useless comment on here thats not goin to be read and will eventually be in the lost
comments with the rest..if you know what i mean, but nicely done, never seen any other tab like it. EXCELLENT.
+3   January 15 2008, 10:23 pm by SOAD!1 |
this tab helped me sooo much 5 stars
+1   January 15 2008, 10:35 pm by Fingerease44 |
pretty sweet!!!
+2   January 19 2008, 09:06 pm by frenchy1 |
tthis tab is the shit!!!!!!!!!
+2   January 20 2008, 03:39 pm by shiniguitar |
!!!wow!!!
really nice tab
+1   January 22 2008, 05:07 pm by GuitarSk8er804 |
i cant believe this isnt ahead of hey there delilah
-2   January 22 2008, 06:56 pm by GuitarHero_FT |
Amazing
-2   January 23 2008, 01:17 pm by Blink-456 |
Good very very good : P : P
-20   January 23 2008, 01:23 pm by Craig01 |
led zeppelin sucks ****ing shit.
-2   January 23 2008, 04:34 pm by gibsg1961 |
yea good job, and craig01, GET OUT!!!! you dont belong and if you play guitar than, jimmy paige is god, but if you think
they suck than you must be so much better, but sweet tab i wish i could do that good after 9 years of playing
January 28 2008, 06:43 pm by kong55 |
wow
only thing i could find wrong was fingering for g chord was wrong in like 2 places
January 30 2008, 02:09 pm by bon_scott |
this ****ing tab rocks
zeppelin rules
+1   February 2 2008, 01:12 pm by gunsnroses#1 |
hey there delila sucks ass, this should be the #1 tab
+3   February 6 2008, 01:32 pm by master of music |
how this is 2nd i will never now. but if u luv Led Zeppelin and this ****in tab by extension. giv me a thumbs up!
+1   February 9 2008, 06:09 pm by SoaD_Daron |
I Love Ya
+1   February 11 2008, 12:12 am by hazardmaster |
great tab bro! music these days suck
+5   February 11 2008, 02:52 pm by Gibsonfan! |
that cant be right in the solo it says

8h10h10

wtf

how do u do this
February 12 2008, 11:05 pm by g_tab_man |
dude do u know how long it took to print this? haha oh well good job.
February 13 2008, 03:10 pm by demarcuz88 |
Dude amazing tab
+3   February 13 2008, 05:14 pm by cozzy99coz |
this song is finaly ahead of hey ther delilah! it definintly deserves it. *knock on wood*
+1   February 14 2008, 03:38 pm by MortalPickles |
Finally back in #1!!! sooo much better than hey there delilah! :)
-1   February 14 2008, 08:11 pm by rocker108 |
Dude great job. I have that issue of guitar world. it sound and looks all right to me!!!!!
-1   February 14 2008, 08:36 pm by joshvise |
dude this tab is great who ever tabbed this you did a good job
-2   February 16 2008, 11:18 am by thatdamnclown22 |
jesus there are a lot of idiots arguing over this tab.

it's a really good tab

enough said
February 20 2008, 12:39 pm by bon_scott |
1: aint ready for stairway to heaven

2:you pluck the string you dont strum kid
-10   February 20 2008, 04:22 pm by delany |
hwo do u no if im a kid, kid
-4   February 21 2008, 03:19 pm by delany |
i been playing for 7 years n i never read tabs dat much so how am i not ready for stairway to heaven
+2   February 22 2008, 02:37 pm by bon_scott |
well i been playing for almost a year and in 2 weeks i learned everything but the solo nobody helped me but i never gave up.
-3   February 22 2008, 03:36 pm by SowingSeason |
Why are people making a big deal out of this its an easy song to play.
-2   February 22 2008, 09:38 pm by cozzy99coz |
GOD DELANY! U USE HYBRID PICKING OR FINGER PICKING! its prtty simple.
hybrid- use pick and finger at da same time(as in "under the bridge")
finger- pluck 2 strings wit 2 fingers
February 23 2008, 10:32 pm by defunkmaster |
wow dude, this tabber started a riot,

when i pictured the dude typing up this AMAZING tab for what tenacious d calls the greatest song in the world(and thats where i stand too) i pictured zeppelin,(thats how u spell it [=
+3   March 2 2008, 05:52 pm by rockets1 |
its freaken awsome!!!!!!!!!!!!!!!!!!!!!!!!!!!!!!!!!!!!!!!!!!!!!!!!!!!!!!!!!!!!!!!!!!!!!!!!!!!!!!!!!!!!!!!!!!!!!!!!!!!!!!!!!!!!!!!!!!
!!!!!!!!!!!!!!!!!!!!!!!!!!!!!!!!!!!!!!!!!!!!!!!!!!!!!!!!!!!!!!!!!!!!!!!!!!!!!!!!!!!!!!!
-3   March 7 2008, 06:57 pm by jaasrock |
best song ever best tab eveer la mejor cancion del mundo y si alguien no esta de acuerdo que me avise para patearles las bolas
March 7 2008, 06:59 pm by jaasrock |
RRR nice tab of best song ever this tab is MALDITA,great!!!!!!!!!!!!
March 12 2008, 07:52 am by saintjimmy777 |
Holy shit! Whoever took the time to tab this was insane!!! Good work. And may i mention that posting comments is not a place for people to say that a song is gay or talk about things other than this song. Shut the hell up, and stay on topic n00bs. El reporto to the adminos.
March 13 2008, 04:41 pm by HAPMAN9 |
your awsome to take so much time u are a deticated guitarist
-3   March 14 2008, 02:28 am by --blair8065-- |
e|--3p2---2-2-------|
B|--------3-3-------|
G|--------2-2-------|
D|--0-----0-0-------|
A|-------------0-2--|
E|------------------|


corectin my corection!!
+2   March 16 2008, 11:43 am by ntristan |
really good tab i am 11 and can play this because of this person!!!!!!!!!!!!!!!!!!!!!!!!!!!!!!
+13   March 17 2008, 01:06 pm by lotrpippin |
great tab and must have taken ages, but here is one correction:

instead of

-----------------------
------------1-------0--
----------0-------0----
--------2-------0------ etc.
--0-2-3-------2--------
-----------------------

(where Plant sings "stand loo-king", "with laugh-ter", "road youre on" and "whis-p'ring wind)

it should actually be:

-----------------------
-----------------------
----------0-------0----
--------2-------0------
--0-2-3-----3-2-----2--
-----------------------

my version is correct - i guarantee - but i read through all the rest of your tab and the only other mistakes were the missing bar in the intro and the incorrect spelling of 'zeppelin', both of which i imagine you're already aware of

overall - ace tab!!
+2   March 17 2008, 09:35 pm by ladybug |
sick, well done.
+2   March 18 2008, 12:20 pm by redskinsrule1 |
incrrrrrrrrrrrrrrrrrredible!!!!!!!!!!!!!!!
+2   March 18 2008, 06:15 pm by SwizzlyBiscuits |
u spend to much tim on dis we ite> U guitar god
March 21 2008, 04:44 am by JI-HALL |
this is nice man
March 22 2008, 12:07 pm by harisgp |
Great you deserve 3000000 more to rate but i just cant vote again ..great job
March 27 2008, 04:56 pm by GuitarSk8er804 |
dude theres still 5 stars and its gonna stay that way.....
March 27 2008, 06:55 pm by thedarkblues06 |
Yeah, forever...#1 forever lol.
-4   March 27 2008, 11:43 pm by nyyankeefan7910 |
great tab, great song, almost impossible to play
+3   March 29 2008, 07:08 pm by jeff_the_walrus |
this tab doesn't deserve more then 5 stars
others songs deserve less then 5 stars
March 30 2008, 04:59 pm by guitartaber93 |
Great tab must have taken while to tab!!!
March 31 2008, 08:45 pm by J.A.G |
sweet tab man it really helped me out
April 2 2008, 01:53 pm by mikeandrufus |
thanks,you must be a great guitarist if you can tab this well, id like to see you play!
-1   April 2 2008, 09:41 pm by guitarguy02 |
this tab is exactly like the power tab i have, nice, but the timing is not displayed very well, it is a slow song, about 1/2 second in between each note, but amazing work still yet
April 4 2008, 08:37 pm by gacutar |
awesome Tab.... its 100%!!
People thought it was the real thing!!
April 5 2008, 11:08 pm by Monkey Hand |
Plant says..."Stairway to Heaven", 3 times in the whole song...listen to the first 2 times he says it.....and listen good.....he's actually saying hell...don't beleive me...then listen to the song right now....
-1   April 5 2008, 11:11 pm by Monkey Hand |
Plant says..."Stairway to Heaven", 3 times in the whole song...listen to the first 2 times he says it.....and listen good.....he's actually saying hell...don't beleive me...then listen to the song right now...
+2   April 7 2008, 10:05 pm by guitarplayah831 |
whats up with slayerfan93? led zeppelin is the greatest band ever and stairway to heaven rocks. and led zeppelin is not a satanic band.
-22   April 8 2008, 12:14 pm by guitargod43 |
You Basically Got 100% On This Tab But Theres One Mistake In The Intro,
You Said You Play It Like This,
----------------
-0-2-2----------
-0-1-1----------
----------------
-2-0-0----------
----------------

But Its Actually Like This

-------------------
-0-3-3-------------
-0-2-3-------------
-------------------
-2-0-0-------------
-------------------
But Still This Is An Amzing Tab
-1   April 15 2008, 11:23 pm by cozzy99coz |
uhhhh no monkey hand, the first 2 times he says heaven
-8   April 16 2008, 07:55 pm by svr |
in the intro de second this part
---------2-----2-|-0-----0----------|---------------2-|-0-0-0-----------|
B-------1---3-----|---1-----0h1------|-------1-----3---|-1-1-1-----------|
G-----0-------2---|-----2-------2----|-----0-----2-----|-2-2-2-----------|
D---2-----0-------|-3----------------|---2-----0-------|-3-3-3-----------|
A-3---------------|---------0----0-2-|-3---------------|-----------------|
E-----------------|------------------|-----------------|-----------------|

its a god tab=)
-5   April 21 2008, 10:59 pm by Galvandark |
This is a very awesome tab, but why is it #1?
+1   April 23 2008, 05:40 am by ariellaxoxox |
wow great tab!
-1   April 24 2008, 06:27 pm by maiden4life! |
a real finger buster for me, oh well gonna learn it anyway ;D
+1   April 27 2008, 02:17 am by tom s |
gr8 tab!!! LOVE IT...
-1   April 29 2008, 02:10 pm by Jawkster |
Perfect tab, no mistakes I'm sure. 1001th comment too, cool.
April 30 2008, 08:15 am by fat_strings252 |
since everyone else has commented this......i figured i would too. Sweet tab, and keep up the good work man! ps. thats a LOT of comments
+2   April 30 2008, 02:01 pm by jarrett=jebus |
excellent tab
-1   April 30 2008, 06:39 pm by GuitarSk8er804 |
haha slayerfan got banned!
-1   May 1 2008, 11:22 am by drummerofgod89 |
Wow, 1001th post. Jesus.
May 3 2008, 05:47 pm by Alex Thirkell |
at the end of the 3rd line in the intro you need an extra
e--3p2
-9   May 4 2008, 12:07 pm by slayerfan93 |
this song is odd
-7   May 4 2008, 12:08 pm by slayerfan93 |
rofl sorry i aint mean thatlol
-7   May 4 2008, 12:08 pm by slayerfan93 |
y'know this song could have done with a womans touch
-9   May 4 2008, 12:09 pm by slayerfan93 |
this sounds better in drop b tuning
-7   May 4 2008, 12:10 pm by slayerfan93 |
sorry about all the rubbish i'm saying but i'm bored lol
+4   May 4 2008, 12:13 pm by slayerfan93 |
every one give the 1000th comment the thumbs down
+1   May 4 2008, 06:56 pm by GuitarSk8er804 |
spam in forums??????
+3   May 4 2008, 06:57 pm by GuitarSk8er804 |
I CANT BELIEVE THIS IS #2 NOW!
+6   May 5 2008, 06:13 pm by Bucketheadroolz |
wow the 1000th comment didnt even say thousand right
so sad
-9   May 6 2008, 04:31 pm by drummer11 |
intros wrong. Other than that this tab is the most perfect tab available. It makes you sound like jimmy.
-4   May 6 2008, 05:35 pm by marshmellow666 |
PISSS
-8   May 6 2008, 07:38 pm by fretman5000 |
I prefer the highway to hell!!!!!!!!!
+4   May 7 2008, 10:54 am by knux007 |
great tab :D
+4   May 7 2008, 11:44 am by mustaineNslash |
why cant there be an esculator to heaven, or an elevator.
either way, this is the best song ever.
+18   May 9 2008, 04:33 pm by lotrpippin |
i just spent absolutely ages reading all the comments here (yes, all of the, :/) and i have to say there are many idiots who have asked retarded questions. i know most people reading this comment will know the answers, but for the sake of the noobs i thought i would write a list answering all the questions so everyone is clear.

Q "how do you play two string (in the intro) at the same time?"
A "the intro is finger-picked i.e. you use your fingers to pluck the strings. i find it best to use my thumb for all notes on the 4th and 5th strings, first finger for the 3rd string notes, 2nd finger for the 2nd string, and 3rd finger for the 1st string. it may take some time to get the hang of it"

Q "it doesnt sound right"
A "apart from the obvious (tune your guitar), this issue is probably with either the intro or the solo. if you dont think the solo sounds right, make sure you use a slight overdrive and also reverb effect on your amp and it sounds awesome. if you dont think the intro sounds right, it is probably because you are playing each note on the tab seperately, while actually it is supposed to be an arpeggio. this means that you barre the chord with your first finger, and let sunsequent notes ring over each other. for example, with the first chord of the song, Aminor, barre the 1st - 4th strings at the 5th fret with your 1st finger, and then keep it there until you have to move it down to barre at the 2nd fret. this may be tricky at first if youre a noobm but yuoll get it eventually"

Q "what tuning do i use for this song"
A "no offence but this is a bit of a stupid question. it is in standard tuning i.e. from lowest pitched to highest pitched - EADGBe"

Q "in the solo, what do the slash marks mean? e.g. 14--//--//--//"
A "they mean that you repeat the previous pattern of notes. listen to the song and play that part of the solo along with it and you will understand. also, i dont really understand why people ask this question (although only 2 people did), because the slash markings only appear int the second tab for the solo, which for all intents and purposes is identical to the first tab, which therefore makes me wonder why the tabber bothered to tab it out again. anyway ive answered your question"

ok those are all the questions i saw which warranted answering. hope i have helped some people

ps. led zeppelin is the best band ever. S-to-H and 'thats the way' are their best songs in my opinion
-8   May 9 2008, 04:37 pm by lotrpippin |
wtf? it says i left the comment above at 04:33pm but i left it at 21:33pm. then again i am in the UK so 5 hours behind means that the site must be set to the time on the east coast of the US (new york etc.)

sorry i know this comment is a bit pointless but thought i might as well say it
-4   May 10 2008, 05:18 pm by StratMan62994 |
this song is kinda easy. With all the hype about it i thought it was gonna be hard (thats what she said) but its still a great song!
+7   May 11 2008, 01:46 am by guitartaber93 |
you can't say "that's what she said" about what you said, it's against the rules.
+5   May 11 2008, 01:49 am by paradox_047 |
[04-24-2008 - 06:27 pm] by maiden4life!:| -1
a real finger buster for me, oh well gonna learn it anyway ;D

ooooh that is definetly what SHE SAID
-2   May 11 2008, 10:46 am by GuitarSk8er804 |
ya know i dont recall you guys ever saying stuff like that! thats what slayerfan said! haha im kidding!!!!! i got that from my friends at school so i am kidding about all that stuff!
+4   May 12 2008, 08:20 pm by marcelaguiar |
wow slayerfan93, that's the best comment i've seen on this website. I sometimes spend mor etime commenting then playing the guitar.
-2   May 15 2008, 12:00 am by akaEli |
this isn't right the intro is close but over all SUCK SUCK don't get me wrong i think it's cool you put this on but if you want to play it like Jimmy Page your not going any where
May 15 2008, 10:44 am by magicman0127 |
hey akaEli i think its a good tab and almost everyone else said it was to so why dont you quit your bitching and if you dont like the tab go make your own ver.
-11   May 16 2008, 09:22 am by markbudder |
good tab just a shit song
-4   May 17 2008, 07:18 am by lotrpippin |
slayerfan wtf is the point in copying and asting other peoples comments into one of your own comments?? its just annoying
May 17 2008, 12:51 pm by mustaineNslash |
yes!!! stairways #1 again. just like it should be.
May 17 2008, 01:32 pm by eglynn |
brill
-1   May 17 2008, 04:43 pm by Led-Zeppelin134 |
Awsome tab
-1   May 17 2008, 05:27 pm by GuitarSk8er804 |
slayerfan:

STOP EEEEEET!!!!!!!!
May 18 2008, 09:51 am by SharkoNed |
Great
-2   May 18 2008, 11:03 am by typecast21 |
if you backmask the song or play it in reverse it will say something odd..
May 19 2008, 02:27 pm by slayerfan93 |
wot u mean typecast21?
+4   May 20 2008, 01:55 am by knux007 |
typecast21: that is just bullshit, it aint somthing weird, all you hear is just the song backwards, but if you can read lyrics to it, that the mind chooses to se, what it want to se. So that "satanistic" shit is just bullshit..

Great song and great tab!
May 22 2008, 12:24 am by simmons100 |
thanks great tab
May 23 2008, 09:23 am by dragonizer50 |
love the tab dude....u rock....i wont be surprised if ur realy jimmy page....thanks
-1   May 25 2008, 11:17 pm by Phoenixbro |
Hey great tab, but in the intro with the 7 and the 6 together, do u hit only both strings or all the strings....i dont get that part at all
-1   May 26 2008, 05:27 am by guitarstar97 |
Could u check out my profile if u read this. it makes it look like i have friends.
May 26 2008, 11:08 am by scurrcrow |
hey phoenix bro, you should fingerpick the intro. and where it has the 7 and the 6 together use two of your fingers to pick them at the same time. same with all the other notes like that.
-1   May 27 2008, 02:14 pm by Ahlers |
There's a piece of the intro missing! The twelfth of the 16 parts of the intro is just not there. I don't get it.
-1   May 27 2008, 07:52 pm by Fendertele101 |
Dude this tab is flippin sweet... Im only thirteen and cant even play it half way... good job
May 28 2008, 04:38 pm by redninja16 |
That is so awsome its the best dude!!!!!!!!!!?!!!!
-1   May 29 2008, 08:09 am by moran |
Great tab!!

:]
-1   May 31 2008, 10:59 am by gsnizzle |
nice tab. i couldn't find how to play it like jimmy page til this. nice
-1   June 1 2008, 02:12 pm by GuitarSk8er804 |
Fendertele101:

i am 12.....i have been playing 4 a year........and i can play way more than half of this........
-1   June 2 2008, 01:06 pm by tinyer3 |
GREAT TAB!!!!!!!! ROCK ON BRO!!!!!!!!
-1   June 2 2008, 01:58 pm by lsc_lucho94 |
good work!!!this is a great tab!!!!!!!!!!!!!!!!!!!!!!
-1   June 3 2008, 06:08 pm by supaadam |
AWSOME MAN
O
/i\
/ \
June 3 2008, 06:20 pm by supaadam |
hi
-1   June 3 2008, 08:08 pm by TheHeelaMonster |
Hey does anyone have any tips on the fingering of the intro?
-4   June 7 2008, 05:37 pm by GuitarSk8er804 |
YES!!!!!!!!! AFTER ALL THIS PRACTICING I CAN FINALLY PLAY THE WHOLE SONG!!!!!! AND IM 12!!!!!!!!!!!!
June 7 2008, 05:41 pm by GuitarSk8er804 |
WOOOOOW A LOT OF COMMENTS GOT DELETED!!!!!!!
June 8 2008, 07:21 am by Matt SX |
nice tab!
June 8 2008, 04:50 pm by AlucardZero |
I ****ing love this solo.
June 12 2008, 01:16 am by Swainyness |
this is awesome great work
+6   June 12 2008, 01:59 pm by ximi-ximi |
Heejj,
My english isn't verry wel, but I can say that this is a verry special tab for me...
It was the favoriet song of a theater that died last month. He wasn't just a teather, he was a good friend of my. A have cryed a lot. I was just stared playing guitar and I woud love to play his favoriet song, thanks to this tab I did it. Thanks for the tab man! It means a lot to me!!

Grtz Maxime
June 15 2008, 05:32 pm by tontsu |
This tab is just amazing. WELL DONE!
-9   June 16 2008, 04:51 pm by hi!!! |
This is a great tab!!!! Nearly perfect!!!! During the part where he says "Theres a fealing i get..." and all the tabs that r like that part, i think there is another guitar playing this with your tab:

------------------|------------------------|-----------------0--|--0--------|
------------------|------------------------|-----------------1--|--1--------|
-------0------0---|------------2-----------|---0--------0----2--|--2--------|
-----2---2--0---0-|----------2---2---------|-2---2----0---0--3--|--2--------|
---3-------2------|-2h3-0-0---------0-2-3--|--------2--------3--|--0---0-2--|
------------------|------------------------|-----------------1--|-----------|
 
June 18 2008, 01:03 pm by Richie Hoopes |
awesome!!!!
-1   June 19 2008, 12:41 am by xplayerx0217 |
wow...comments since 2001...i could only read about a fourth of them before my eyes died lol. I think its a perfect tab, except for that one gap in the intro lol but who cares everyone could fill that in themselves. Good tab!
+1   June 19 2008, 05:59 pm by hawksong |
great ****ing tab i dont care what you other asses said"its bad" bullshit its great
-1   June 19 2008, 10:03 pm by stringsquealer |
lol led ZEPPELING!

but excellent tab, jood gob!
June 20 2008, 04:07 pm by poseidon109 |
omg how is coldplay in first!?!@?!?!?! omgwtfbbq
+4   June 20 2008, 04:59 pm by GuitarSk8er804 |
i play the part where it sais "There's a feel that i get...." and so on like this:

----------3---------3--------------------------------3----
------------1---------1---0h1----------1---------------1--
------------------------------2------2--------------------
-------2---------0-----------------2--------------2-------
-0-2-3---------2-----------------0----------0-2-3---------
----------------------------------------------------------

-------3--------------------------
-----------0--1-------------------
-----------0--2-------------------
----0---------2-------------------
--2--------2--0-------------------
----------------------------------

im not saying its wrong its just the way i play it
+2   June 21 2008, 07:14 am by jre71295 |
this tab is right this is the way everyone learns to play it, jimmy plays it on a 12 string electric though
+3   June 21 2008, 06:33 pm by GuitarSk8er804 |
and why does everyone hate this song????? i bet they haven't heard the whole thing
+1   June 22 2008, 07:15 am by FuZzY(aus) |
that was awesome!
perfect tab
nice work
+1   June 23 2008, 02:30 pm by snakeyes121 |
this might take me a verry long time to learn, but it all looks right. Nice Job! This song is awesome no matter what anyone says.
-1   June 23 2008, 02:35 pm by snakeyes121 |
on the second line, how can the count still be the same as the first, but have more notes? should it be played faster, or is one supposed to be a double? please help. I am confused.
-1   June 23 2008, 02:41 pm by snakeyes121 |
scratch last plea for help. the 5 on the e string isn't there the second time. I get it now.
-2   June 23 2008, 03:04 pm by sultan of muzic |
wow great tab ( i dont like this song its to..... soft) but nice im not suprised it got in the top 10, but i dont think it should be number 1
-1   June 26 2008, 02:14 pm by |Guitarhead| |
extremely good tab, but I spotted a few errors.
+1   June 26 2008, 02:24 pm by |Guitarhead| |
-Great tab
-I don't care if it's copied, good for posting it, although it perhaps doesn't deserve as much, but I would do the same.
-Led Zeppelin rule, and I love everything especially the solo.
-One thing I find annoying:

This tab gets millions of views and thousands of 5 star ratings, but a tab I probably spent a lot more effort on gets 2 or 3 views because it is not as popular as this amazing epic song... Oh well...

Thanks for posting it.
-1   June 27 2008, 12:20 am by zak4zeppelin |
hey man awesome tab great job on it....i wish someone would post the way that he plays the song live cause he does a couple things different live .....if you don't kno what i'm talking about go

http://youtube.com/watch?v=ayzhJKy8H_A

watch that video and see if anyone can figure out the way he plays it and send me a message if you do
thnx!
June 27 2008, 12:35 pm by drummer11 |
Who cares if he copied it how would you know maybe he just learned it the right way!
June 27 2008, 01:54 pm by Guitar_beast666 |
ok people who gives a **** if this guy misspelled zeppelin. the tab is practically perfect so don't complain about it.
+1   June 28 2008, 08:41 am by knux007 |
To Guitarhead.

This song is the best song in the rock history, so it aint that strange that millions of people want to learn to play it. and it takes 13 pages to print it out, so i think if he didn't copy it it takes ALOT more time to make this then you use to make yours.

Great song anyway - 5 Stars.
+1   June 28 2008, 11:21 am by Rachel247 |
this tab is AMAZING!!!! i would rate it more than 5 stars if i could
+1   June 28 2008, 10:09 pm by walchiee |
led zeppelin is a great band one of the best but the greatest band ever is the beatles, and by the way amazing tab its great =]
June 29 2008, 07:28 pm by trussell |
so is my thing that i posted correct?
June 29 2008, 10:04 pm by guitarguy741 |
KA PIE!
July 1 2008, 02:31 am by yr mum |
amazing how long did it take to tab this bloody long great effort
-4   July 1 2008, 09:29 pm by brianaoa |
great tab but he copied and pasted out of a magazine it stinks for the people who tab it from sound and get yelled at for posting a ****ed up tab
+1   July 7 2008, 02:20 pm by 3dd_bggst_fan |
this is the best most correct tab i've ever found on this website. i couldnt care less where he got it!
July 7 2008, 05:23 pm by Epic Failure |
This is a great tab! You have so many frekin views!
July 9 2008, 03:47 pm by whothef***cares |
i want to play this but i dont want to print it out...im so confused for some reason
July 9 2008, 07:08 pm by epistandard21 |
wow
it took me like 10 minutes to stroll down to the end of the comments page. and yet why am i commenting? everyone who has ever looked at this or tried to play it knows that it is great
-2   July 10 2008, 08:30 am by Just2Rusty |
You win +1 Internet!!!
July 11 2008, 05:57 am by conor123096 |
this tab rules
July 13 2008, 11:50 am by billy_talent101 |
since this is #1 on top 100 with top hits i need some help. what can you guys recommend for song for begginers with acoustic for either tabs or chords plz respond
-3   July 14 2008, 05:59 am by GooeytarLurver6 |
Mate, just so you know: All of this song apart from the Guitar solo is done on a 12-string Electric and is played clean. The guitar solo is played on a 6-string Electric and is also played clean. That's how he played it in the studio and this is hopw he plays it in concerts. Just so you know.
July 15 2008, 01:11 pm by chris77396 |
dude..i love you!
July 16 2008, 05:09 pm by sagn |
I'll tell you mate, that is the most amazing bloody tab i think i have ever seen. led zeppelin is the greatest band ever and this is one of their best songs!
July 16 2008, 08:39 pm by bigmick93 |
Top job man. its spot on =D
-1   July 17 2008, 03:59 pm by walchiee |
this is for billy talent try playing what you give by tesla is acuostic and its pretty easy
-1   July 18 2008, 01:08 am by cozzy99coz |
uhhh goeytar, its the other way around. the 12 strings on the double neck is for soloing. and dont say mate. i hate tht word
-8   July 18 2008, 01:17 pm by cganorton |
this tab sucks
+1   July 19 2008, 11:03 pm by _punkee_ |
this tab is so cool I Did BoY expEcT thats many peolpe will vOyed this much higher so keep uP^^^^^^^ so i rate it 5 (*****) cool THIS tab IS So haRd tO MEmOriZe bUt tHIs is cooL
July 22 2008, 11:59 pm by Zamarneim |
Dude, I love this tab!
+1   July 23 2008, 02:06 am by unlucky13akadnl |
awesome tab. Must have taken a very long time. and people... who cares if they copied it out of a book? I want to see you copy it and take the time to put it all in. also. on the "Led Zeppeling" thing... big deal? accidentally ending it in "ing" isn't that hard to do. "ing" is a very popular ending for words. [I'd say suffix but i think some people might not understand it... -.- ]

All in all an awesome tab. Keep it up. and REGISTER! Trust me. It'll be good if you post more tabs like this. ^.^
-16   July 23 2008, 06:55 pm by jdawg24 |
I love this band but i hate this song
-3   July 29 2008, 02:56 am by Bleakers |
is it just me or does anyone think the intro in this tab ends a bit too short?


E-------0-2-----2-|-0-----0----------|---------3-----3-3p2-0-2|
B-----------3-----|---1-----0h1------|-1-----1---0------------|
G-----0-------2---|-----2-------2----|---0---------0----------|
D---2-----0-------|-3----------------|-----2------------------|
A-3---------------|---------0----0-2-|-3----------------------|
E-----------------|------------------|---------3--------------|


that's the way i'm hearing it in the song...just something i noticed...otherwise extremely orgasmic tab and i wish i could play the whole damn song by memory :)
July 29 2008, 09:45 am by Ro734 |
how is it possible to tab that well and have no user
July 29 2008, 11:20 am by jake c 999 |
well good tab man. keep it up.
-4   July 30 2008, 12:29 pm by Ro734 |
1100th comment
July 30 2008, 12:30 pm by Ro734 |
blutack
July 31 2008, 08:43 pm by qtip262 |
awesome tab
August 1 2008, 04:55 pm by guitarmasta8179 |
very very very awesome tab some more !!!!!!!!!!!!
August 2 2008, 03:21 am by ToyPJs |
If he is Unregistered maybe he already posted more without us knowing?!
-2   August 4 2008, 03:44 pm by DAS Guitar Er |
who puts this many comments on a song WOW.........
August 5 2008, 12:22 pm by paul1991 |
I thought this tabs was wrong but I had only heard the live version
after hearing the cd version I think this tab could actually be perfect
the live version is way better though

here is a link incase u haven't heard it
http://www.youtube.com/watch?v=ayzhJKy8H_A
August 5 2008, 05:40 pm by Snap017 |
The 15b17b15 part of the solo doesn't sound right...then again maybe its just me.

Amazing tab regardless.
-2   August 7 2008, 11:23 pm by Blindblackfoot |
haha theres been a comment on damn near every day for the past years, haha though i would post one for today. awesome tab btw.
+1   August 8 2008, 06:20 pm by spiralozooid |
awesome tab! #1!
+1   August 8 2008, 11:53 pm by theftunder1000 |
this is awesome!!!
props to bro!!!
August 10 2008, 03:49 am by EAGLESABOVEALL |
GREAT TAB I KNOW WHAT I'LL BE SPENDING THE REST OF THE YEAR ON WELL WORTH IT THOUGH
-2   August 10 2008, 08:14 pm by classicrockboy |
woo hoo! 1112th to comment and 3916th to vote!!!
greatest tab on UG!!!
August 12 2008, 09:30 pm by p_a_morgan |
amazing tab..and for all these other pll on here..its spelled "Zeppelin" not Zepplin..i mean if you cant spell its cool..but dont try to correct ppl when they're right and your wrong...great tab dude..
-1   August 15 2008, 07:58 pm by Xanron |
I think there about 4 notes after
|---------3-----3-|
|-1-----1---0-----|
|---0---------0---|
|-----2-----------|
|-3---------------|
|---------3-------|

Is it just me?
-2   August 15 2008, 11:03 pm by slashman94 |
amazing. i actaully learned it from a classical gutiarist and i elarned it in about a week just playin 2 hours a day. beat that.
and i'm 13 years old ha ha.

oh and it's spelled zeppelin not zepplin
+1   August 16 2008, 02:58 am by Adzy G |
lol, "zeppeling". perfect tab though thanks.
August 17 2008, 04:17 am by LiGe08 |
zeppeling. anyways, i think there's something missing on the intro part.
-1   August 19 2008, 02:53 pm by stratele |
its time...

time for me to learn this song
August 19 2008, 08:11 pm by Paja_94 |
I'm shore it's should be No 1 more than 3 years:----)
-18   August 22 2008, 09:31 pm by parjanya |
all good except it's by the Foo Fighters not Led Zeppelin or w/e crap band u wrote. So i give it 2 stars (not 5 coz u got the artist wrong scrub).
+1   August 23 2008, 03:13 am by sglover34479 |
^^^^ Umm.. quite frankly bud, you seem to be the biggest retard ever. Led Zeppelin wrote this song and the foo fighters did a COVER.
August 23 2008, 07:46 am by guitargodgary13 |
Nice job in the tab! I only kno the intro (thnx to my guitar teacher) but now im gonna try and learn most or part of the song.
Oh yea I have to agree with sglover because any smart person would know who made stairway to heaven.
August 23 2008, 07:57 am by Metalfreak08 |
parjanya your a tool it was ledzep that wrote this song like sglover said everyone knows that and this tabs amazing unbeliveable cpoied or not
-3   August 23 2008, 04:55 pm by sglover34479 |
Hey metalfreak08 and guitargodgary13, thx for backing me up I just dont get how someone can think the foo fighters wrote a classic that was realeased before dave grohl even saw a guitar.
August 23 2008, 06:41 pm by Junker214 |
well this tab is perfic wat more could i say. the original band better and the song the best. thanks for bringing everyone a step closer to professional music.

O.o
August 24 2008, 11:38 am by sglover34479 |
Yeah I am getting it slowly but surely and I love the tab. Its easy to read and it sounds amazing. *5stars
August 24 2008, 08:47 pm by Airjumpman11 |
dude nice tab it sounds awesome
August 25 2008, 08:47 pm by Shawnypuff167 |
woah..thats alls im sayin...woah
August 26 2008, 12:26 am by Mondo Generator |
Well, parjanya, I would expect no less from a Foo Fighter fan.
Yeah, Led Zeppelin: crappiest band EVER.
God, you are such a retard.
-1   August 26 2008, 02:09 pm by Jackothespacko |
This is a really great tab! I'm just not sure about something - where there seems to be a missing -----------, i think there is a pull-off and chord. Does anyone know it?
-2   August 27 2008, 08:56 pm by Exo M7 |
I love how the best tab on here doesn't even spell the band's name right...
August 28 2008, 09:09 pm by WARNINGnimrod12 |
What's with all the homo's putting their own version in the comments?! Hello, the perfect tab is just above you!!!

Great job man, 5 million stars!!!!!!
-2   September 1 2008, 09:52 am by DeLongeFan182 |
lol to Exo M7. its so true. other then that, great tab
-2   September 4 2008, 09:33 pm by b_woodsk8er5 |
party on garth party on wayne!!! hey nice tab must have takin u hours good job well done!
-2   September 4 2008, 10:15 pm by ben_nt64 |
nice tab
-2   September 6 2008, 10:36 am by dracopop9 |
good job man hard to play all of it at once (fgingers start to hurt) but all the same that was an exellent tab
-1   September 6 2008, 04:56 pm by daniel.mckenna. |
some people r sayin this is hard 2 learn
but im nt criticisin them or anythin as i havent even started 2 try and play it yet but to me it looks like the same thing repeated alot with variations at the end
-1   September 8 2008, 12:36 pm by slashfan414 |
this is gold
-1   September 11 2008, 06:22 am by badbass64 |
1139. Does't it eventually get to a point where it's no longer worth commenting?
-1   September 13 2008, 05:37 pm by -Jake95- |
^^^to badbass64 = it gets to the point where i need to post one knowing that no1 is sad enough to read them all
-2   September 14 2008, 12:56 am by Elden G20 |
^^^^-Jake95-

hahaha im sure theres someone
-9   September 14 2008, 05:44 am by Danny Fear |
I can do that better! IS TOTALLY WRONG! See you in hell
September 14 2008, 09:54 pm by kevinator |
#1143 i wonder if the moderators have to check all of these comments
+1   September 15 2008, 07:33 pm by irbdmck |
are you supposed to finger pick or normal pick?
+2   September 17 2008, 07:54 pm by rygor42 |
finger picking helps but u can do it by using ur ring or middle finger GREAT FUCKING TAB THI SIS THE WAY IT GOES AND IT DONT MATTER A FUCK WHAT ANYONE SAYS
September 18 2008, 12:35 am by Dr. Love777 |
I LOVE THIS TAB IT RULESSSSSSSSSSSSSSS!! GREAT JOB AND EFFORT MAN!
September 18 2008, 12:36 am by Dr. Love777 |
I LOVE THIS TAB IT RULESSSSSSSSSSSSSSS!! GREAT JOB AND EFFORT MAN!
-1   September 19 2008, 08:10 pm by cueva101 |
this song is bad ass man your my hereo man thanks
-1   September 20 2008, 05:54 pm by TheBeatlesR0X |
nice and amazing tab man. but, there are some sections missing. do you think you can fix that? thanks for the tab
-35   September 21 2008, 06:52 pm by DYLANSAD11 |
sond sucked whole song was wrong wrorst sond ive ever heared in my life!!!!!!!!!!!!!!!!!!!!!!!!!!!!!!!!!!!!!!!!!!!!!!!!!!!!!!!!!!!!!!!!!!!!!!!!!!!!!!!!!!!!!!!!!!!!!!!!!!!!!!!!!!!!!!!!!!!!
!!!!!!!!!!!!!!!!!!!!!?????????????????????????????????????????????????????????!!!!!!!!!!!!!!!!!!!!!!!!!!!!!!!!!!!!!!!!!!
!!!!!!!!!!!!!!!!!!!!!!!!!!!!!!!!!!!!!!!!!!!!!!!!!!!!!!!!!!!!!!!!!!!!!!!!!!!!!!!!!!!!!!!!!!!!!!!!!!!!!!!!!!!!!!!!!!!!!!!!
!!!!!!!!!!!!!did i menshon you suck

?????????????????????????????????????????????????????????????????????????????????
-2   September 21 2008, 06:59 pm by DYLANSAD11 |
by the way you spelled led zeppelin wrong
-4   September 21 2008, 07:04 pm by DYLANSAD11 |
by the way you spelled ledzeppelin wrong
+2   September 21 2008, 08:25 pm by StratMan543 |
hey dylansad11........**** you
-6   September 21 2008, 08:38 pm by DYLANSAD11 |
so do you fatty
-9   September 22 2008, 07:34 am by dogzadoggy |
tttttttttttttttttthhhhhhhhhhhhhhhhhhhhhhhhhiiiiiiiiiiiiiiiiiiiiiiissssssssssssssssssssssss rrrrrrrrrrrrrrrrrrrrrooooooooooooooooooooooooooccccccccccccccccccccccckkkkkkkkkkkkkkkkkkkkkkkkkkkkkkssssssssss!!!!!!!!!!
!!!!!!!!!!!!!!!!!!!!!!!!!!!!!!!!;];];];];];];];];];];];];];];];];];];];];];];];];];];];];];];];];];];];];];];];];];];];]
;];];];];];];];];];];];];];];];];];];];];];];];];];];];]];];];];;];];];];];];];];];];];];];];];];];];];];];];];];];];];]
;];];];];];];];];];];];];];];];];];]];;];]]];];];];];];];];];];];];];];];];];];];];];];];];];];
-3   September 22 2008, 07:37 am by dogzadoggy |
by the way DYLANAD11 u sssssssssuuuuuuuuuuccccccccckkkkkkkkkkkk
-2   September 24 2008, 10:21 pm by metalhead805 |
i play the chord before the chorus like the
e-x
b-3
g-0
d-2
a-2
e-0
September 25 2008, 11:22 am by J.Dawg |
Crap, alot of comments. Excellent EXCELLENT! Tab. Very good. The highest rated tab here I think.
October 1 2008, 11:59 pm by DreadFace |
GREAT JOB!!!
October 3 2008, 12:54 am by GamenUrruch |
OMG AWSOME, I play bass but im trying guitar just for this!
-1   October 3 2008, 03:51 am by GamenUrruch |
....3 hours later.... Yes! I am up to the place where the words start!
October 3 2008, 07:05 am by johnmas6 |
why r u wasting ur time hating play the song its all good
-5   October 3 2008, 10:08 pm by Hello_Stefan |
join my group. SKAG.group
-1   October 4 2008, 01:08 am by dj84 |
soo many comments LOL
:0
-3   October 4 2008, 07:17 pm by surbus |
who cares if this is stolen i mean at least he took the time to tab it and it least we know that its right
-2   October 5 2008, 09:25 pm by z3r099 |
wow theres so many comments i dont know why he took the time to tab this but im glad he did and adding the lyrics helps well maybe not but its cool anyways so many comments lmao XD
-1   October 8 2008, 04:15 pm by tommerson16w |
actually spelt led zeppelin not zeppelling
October 8 2008, 08:50 pm by Apocolypse Pony |
This tab Is insane
I got my Guitar teacher to teach me before i saw this and every thing was the same as he taught me
-2   October 9 2008, 10:28 pm by Tyler.Joseph |
AMAZING! nuff said
-3   October 17 2008, 11:34 am by prackouski |
what's up its led leppelin not ZEPPeLINING????
-2   October 18 2008, 05:21 pm by kto456dog |
yep, you got me, Brillaint
-1   October 20 2008, 11:38 am by joe8rulez! |
wtf an amazing tab how do these ppl manage to do such gr8 tabs???????????? fukin fukin fukin fukin fukin amazing
-1   October 22 2008, 03:30 am by steelfingers |
prackouski, theyre called Led Zeppelin because another band at their time said they would "sink like a hot air balloon". so they came up with Lead Zepplin. but then their manager changed it to Led Zeppelin because people were pronoucing their name lee-eed zeppelin instead of led zeppelin.

PS....ZOMFG!!!!! 4000 ratings!!
-1   October 29 2008, 07:58 am by Cowfish13 |
Didn't Keith Moon and John Entwistle (The Who), say "they'd go down like a lead balloon" so that's how they got the name Led Zeppelin
May just be a myth though, not 100% sure...

Incredible tab as well! 0_0
-4   October 31 2008, 11:47 pm by david55599 |
this song is way way way way way way way way way way way way way way way way way way way too overrated
-7   November 2 2008, 02:03 pm by rafa7008 |
It's "Led Zeppelin" not "led leppeling / zeppelining"
November 6 2008, 08:02 pm by arturo1996 |
wtf with this song ive seen rated tabs but dude they are like 4000 visits ....perfect tab. i love this song
-1   November 8 2008, 12:10 am by Mgkrcks |
cowfish13 100% true
-1   November 8 2008, 08:55 pm by Keegz_smith |
you guy as nuts. lol if i had enough time to make this jeez that's what i call a legend. rock on!
+2   November 9 2008, 09:41 pm by aces high 63 |
.........um.... why didnt you take the 2 minutes to make an account?
you could have the best one on U.G.!
-11   November 9 2008, 11:32 pm by NailgunMassacre |
Dood this tab sucks the solo is so off
+1   November 11 2008, 09:37 pm by Newsboys6 |
Awesome!!! People who think it sucks can kiss their FUCKING ASSES!! It's perfect!100%
-1   November 12 2008, 02:32 pm by alyeissa |
100% rite tho its ry hard 2 play
November 12 2008, 04:15 pm by hunter6571 |
Wow!!!!! this is PERFECT. great job.
November 13 2008, 02:54 pm by moofoodooloo |
This makes me sick. I can play about the first ten or twelve notes and then my brain turns to mush and I feel like the worst guitarist to ever pick one up and I kind of want to die.. Maybe not so literally, but still. Check back with me in a couple years.
+2   November 14 2008, 05:23 pm by max_awesomness |
wow! this is just plain amazing, i mean i know i wouldnt be able to put so much time into a tab likes this... well done!
+2   November 16 2008, 04:25 pm by nickyg44 |
all tab corrections are wrong
+2   November 18 2008, 07:30 am by mattiwillohouse |
well done this is an excellent tab. My journey through learning Stairway starts here. I'll post another comment in 5 years when I've got it down, ha!
-1   November 19 2008, 06:12 pm by coldplayluvr |
aaaah!!! my brain is officially fried
omg kudos to you for writing this thing out! it takes me half an hour to do one bar...
it took me a good three days to play the first few notes! omg
November 23 2008, 11:46 am by PancakeLad001 |
great tab, really ridiculous
-19   November 23 2008, 03:56 pm by anavrin(nirvana |
wow.



































































woooooow.













































that is amazing!!
-6   November 25 2008, 08:16 am by jack15_11 |
Lol the tuning for the last four bars changes to EADGHe!
+1   November 26 2008, 08:49 am by Poppelmonde |
****ing amazing!
best tab ever!
November 26 2008, 05:06 pm by name74 |
Ausome
November 30 2008, 01:59 pm by calum94 |
i think it's right!
November 30 2008, 02:01 pm by calum94 |
by the way on the last line you have the B string marked as H lol
November 30 2008, 05:47 pm by dgl02 |
Greatest song ever!
December 1 2008, 09:16 pm by greendayrocksu |
AWESOME JOB TABBING THIS. I NOW KNOW HOW TO PLAY IIT RIGHT! WOOHOO GO YOU!
-1   December 4 2008, 09:49 pm by Megadethrocker |
Nice solo.
-2   December 6 2008, 06:30 am by libertines4ever |
In german-speaking countries the note B is named H
-3   December 6 2008, 06:31 am by libertines4ever |
and the note Bb is named b
-1   December 7 2008, 05:36 pm by tekee007 |
and i like pizza
December 9 2008, 12:13 pm by common_man_tk |
FREAKIN NICE DUDE, best song of all time! Whoever can play this all the way through is a master at guitar, Nice Job!
-5   December 10 2008, 03:11 am by Till From Kenig |
пыщ пыщ
-7   December 10 2008, 12:35 pm by z mikko z |
kebab is better than pizza
+5   December 12 2008, 04:17 am by noobiepro1996 |
a shit and useless tab.....JK.this is the best tab ever.thank you for taking the time...^^
-5   December 14 2008, 11:14 am by DisturbedTabber |
ur a baller
-10   December 14 2008, 11:15 am by DisturbedTabber |
my name is hhhhhhhhhhaaaaaaaaaaaaaaaaaaarrrrrrrrrrrreeeeeeeeeeeeee bbbbbbbbbeeeeeeeeeeeeeettttttttteeeeeeeeeee
-3   December 16 2008, 05:57 pm by DYLANSAD11 |
omg it got over lapped on the top 100 list again by jeff buckley???

I loV This TAB
-3   December 16 2008, 05:58 pm by DYLANSAD11 |
hi
+4   December 21 2008, 01:20 pm by DaMoose |
This is the real rock dont listen to that dragonforce garbage. Classic rock all the way
-3   December 21 2008, 05:14 pm by DYLANSAD11 |
01. Jeff Buckley Hallelujah (ver 2) [ 9095 ] Chords
02. Led Zeppelin Stairway To Heaven

wtf?
-2   December 26 2008, 07:43 pm by paradox_047 |
Things I HATE:

1)People posting their own version of their Starway tabs in their entirety. If it didn't pass UG Mods, we sure as hell don't want to see them.

2)The fact that "Jingle Bells and Hellelujah, or even Hey There Delilah", have surpassed this song in viewings. The only one I approve of were the 24,000 Bob Dylan views that one day.

3)How many times this tab has been called perfect, and thousands of wasted comments on doing so. This tab is most likely not perfect. Regardless, it is a DAMN good tab, and for the one who took their sweet time to do it, we aknowlege your effort and patience.

4)Barack Obama(kidding)...(maybe)
December 26 2008, 07:46 pm by paradox_047 |
And I HATE those pompous pricks who think they're the only ones who noticed "Led Zeppelin" was misspelled. We've all seen it, some more than others. Your complaints haven't changed it in the past year or two this tab has stuck around, it sure as hell won't change now.
-2   December 28 2008, 08:00 am by EsybeR |
i dont anderstand,on movies and other things is sais:''No stair way to heaven'' like its not aloud to play it lol
-2   December 28 2008, 04:31 pm by chromeguitars |
^^^Lol yeah like on Wayne's world, he started playing it and the employee came up to him and pointed to the sign saying "NO stairway to heaven"
+1   January 1 2009, 01:01 pm by GibsonNG |
^^^^ In my local music shop it says "its illegal to play stairway to heaven here"
-2   January 4 2009, 02:10 pm by neo14085 |
Rofl, is that guitar guitar?
-2   January 5 2009, 03:48 pm by TheActor |
Well done. I can't believe this guy didn't register! I wonder if he knows it's the number one rated tab at the moment? =P
-2   January 5 2009, 07:21 pm by CurlyBash |
why is this always at #1?! btw, good tab :D
-1   January 8 2009, 06:40 pm by betz73 |
this tab kicks a$$, love it ...almost spot on....no wonder it's number one.
-2   January 9 2009, 05:55 pm by Reynardl |
hehe. soo many retards leaving stupid coments. This dude spent alot of time makin this tab and made just 1 or 2 small mistakes. But you can see the guys leaving the comments, saying its shit, doesnt have a clue whats going on in the tab, lol. Ive tried playin it trough ut theres no way ill remember the whole song. Ill have to get sumtin like a teleprompter for my band, haha. But I love the tab. And im soo glad its back on top.
-1   January 10 2009, 08:44 am by Mannlespaulguy |
Nice job man must of took you a while to do it nice job
-4   January 12 2009, 02:15 am by xx-hinchcore-xx |
who wrote this called thed LED ZEPLING lol
-3   January 13 2009, 11:43 am by oldblue21 |
will some one tell me how to do this?

---------------------
--------5-------------
----------------------
----------------------
--------6--------------
----------------------?
-1   January 13 2009, 11:43 am by oldblue21 |
be my friend
+1   January 15 2009, 04:08 pm by frettinfreak420 |
old blue, use your middle or index finger to pluck the 5, and then your thumb to pluck the 6.
January 16 2009, 03:15 pm by JCjamer08 |
I learned this song 3 years ago off this it took me a week or to to learn it all the way through but over this is the best tab i've ever found for this song.
-12   January 18 2009, 09:30 pm by Bantar |
Stairway To Heaven

Led Zepplin
Guitare 1

Am E5+/G# C/G D/F#
E E E E E E E E E E E E E E E E
E||-----------5--7---------L--7--|--8------L--8--2-------L--2--|
B||--------5-----L------5-----L--|------5-----L-------3-----L--|
G||-----5--------L---------5--L--|---------5-------------2--L--|
D||--7--------L--6------------L--|--5---------L--4----------L--|
A||------------------------------|-----------------------------|
E||------------------------------|-----------------------------|

FM7 G/B Am
E E E E E E E E E E Q. E E E
--0------------L--0-----L--|--------------------------|
------1--L--1-----L--1--L--|--0---1--1----------------|
---------2-----------L--2--|--0---2--2------2---------|
--3---------------------L--|--------------------------|
---------------------------|--2---0--0------0S--8--7--|
---------------------------|--------------------------|

E+5/G# C/G D/F#
E E E E E E E E E E E E E E E E
--------------7---------L--7--|--8------L--8--2-------L--2--|
-----------5---------5-----L--|------5-----L-------3-----L--|
--------5--L------------5--L--|---------5--L----------2--L--|
-----7-----L--6------------L--|--5---------L--4----------L--|
--0--------L------------------|-----------------------------|
------------------------------|-----------------------------|

FM7 G/B Am C D
E E E E E E E E E E H E E E E E E E E E E
--0------------L--0-----L--|------------------------|-----------0--2-----L--2--|
------1--L--1-----L--1--L--|--0---1--1--------------|-----------------3-----L--|
---------2-----------L--2--|--0---2--2--------------|--------0--L--------2--L--|
--3---------------------L--|------------------------|-----2-----L--0--------L--|
---------------------------|--2---0--0--------0--2--|--3--------L--------------|
---------------------------|------------------------|--------------------------|

FM7 Am C G
E E E E E E E E E E E E E E E E
--0------L--0--------------|--------------3-----L--3--|
------1-----L--0-----------|--1-----L--1-----0-----L--|
---------2--L-----2--------|-----0-----L--------0--L--|
--3---------L--------------|--------2--L--------------|
---------------0--L--0--2--|--3--------L--------------|
---------------------------|--------------3--------L--|

D C D
S S E H E E E E E E E E E E
--3p-2-2--2--------------|--------------2-----L--2--|
-------3--3--------------|-----------1-----3-----L--|
-------2--2--------------|--------0--L--------2--L--|
--0--L-0--0--------------|-----2-----L--0--------L--|
-------------------0--2--|--3--------L--------------|
-------------------------|--------------------------|

FM7 Am C D FM7
E E E E E E E E E E E E E E E E E E H Q
--0------L--0--------------|-----------------------2--|--0---0--0-------------|
------1-----L--0--------L--|-----------1--------3--L--|--1---1--1-------------|
---------2--L-----2-----L--|--------0--L-----2-----L--|--2---2--2-------------|
--3---------L--------------|-----2-----L--0--------L--|--3---3--3-------------|
---------------0--L--0--2--|--3--------L--------------|-----------------------|
---------------------------|--------------------------|-----------------------|

Am E5+/G# C/G D/F#
E E E E E E E E E E E E E E E E
-----------5--7---------L--7--|--8------L--8--2-------L--2--|
--------5--L---------5-----L--|------5-----L-------3-----L--|
-----5-----L------------5--L--|---------5--L----------2--L--|
--7--------L--6------------L--|--5---------L--4----------L--|
------------------------------|-----------------------------|
------------------------------|-----------------------------|

FM7 G/B Am
E E E E E E E E E E H Q
--0------------L--0-----L--|-----------------------|
------1--L--1-----L--1--L--|--0---1--1-------------|
---------2--------L-----2--|--0---2--2-------------|
--3---------------------L--|-----------------------|
---------------------------|--2---0--0-------------|
---------------------------|-----------------------|

E5+/G# C/G D/F#
E E E E E E E E E E E E E E E E
-----------5--7---------L--7--|--8------L--8--2-------L--2--|
--------5--L---------5-----L--|------5-----L-------3-----L--|
-----5-----L------------5--L--|---------5--L----------2--L--|
--7--------L--6----------
January 26 2009, 04:58 pm by _person_ |
great tab! who cares if this was copied out of some magazine???? things like that can be a real bitch to tab out.
nice job:)
-2   January 28 2009, 11:46 pm by Jesse1Gtr |
in the 18th "measure" of the solo it sais "10b14" ...how do u do that? ive never head of a bend that high, and its impossible because the string would have to bend off the fret board.
-1   January 29 2009, 04:44 pm by eric24fly |
sweet tab its people like you that rock dude!
i could never take the time to make a tab this good thanks for the tab
-5   January 30 2009, 07:34 am by warbeast19 |
nice tab, but you spelled "zeppling" wrong.
-2   January 31 2009, 07:51 am by =MetaL=FanatiC= |
Awesome tab dude :) If someone could link me to the BBC Sessions Stairway to Heaven tab that would be great.
January 31 2009, 04:23 pm by Cubscout |
AWESOME!!! Very complete best stairway tab. Good job
February 5 2009, 09:55 pm by Ibitebabies |
Oh my god.. This is amazing, THANK YOU!!
February 8 2009, 11:16 pm by doggiesrunfast |
Awesome song
really cool
no really I can die n peace now
February 11 2009, 06:51 pm by deadlydogrunner |
i jizzed in my pants....seriously.
February 13 2009, 08:45 pm by downfromthesky |
^you know you love guitar when
-3   February 20 2009, 10:46 am by lukes429 |
Jesse1gtr it isn't impossible. I can do it!!!!!!
February 23 2009, 06:43 pm by Sc-fi-lullaby |
hold my hot poo
February 24 2009, 02:08 pm by A.H.guitarhero |
awesome tab dude
February 24 2009, 02:11 pm by A.H.guitarhero |
rock on
+1   February 26 2009, 06:38 am by Alkyan |
Hey, I'm Jimmy Page, and good job guy, it's exactly the way I play this song !
-2   February 27 2009, 11:08 pm by sk8boi3 |
Amazing tab. Very accurate, except on the solo, the beginning notes should be:
e|--------
B|5-------
G|7b9-----
D|--------
A|--------
E|--------
That's Jimmy's signature technique.
Also, at the end of the first phrase in the solo,
use the 3rd fret on the D string to give a brighter tone.
Of course, it's easier to use the 8th on the A, but it
sounds much better my way :P
-1   February 28 2009, 12:19 am by Jimi's shadow |
this is the most awesome song ever. beats the shit out of Hendrix! really hard or a n00b like m to play it though. wish me luck!
P.S. this is a great tab. Jimmy Page would b proud!
-1   March 1 2009, 06:06 pm by SaiNt adEL #13 |
**** shit! this a GREAT tab! REALLY REALLY helps! thx man.
Long live the Led! RIP Bonnam...
+1   March 3 2009, 09:01 pm by HaLeY mOrRiS |
...love it!!
...very NICE!!

p.s. ( [11-09-2008 - 11:32 pm] by NailgunMassacre:| -4
Dood this tab sucks the solo is so off)
this tab does not suck... you suck at guitar!!
+1   March 3 2009, 10:13 pm by Andy_VonSchweal |
who cares if its off a magazine... just play it and have fun with it. the tab is awesome, too. i love it
March 5 2009, 12:54 pm by dritskit |
really nice tab don`t think it can be better
March 6 2009, 11:56 am by jksdvb8 |
Really good tab, shame that Led Zeppelin has been spelled "Led Zeppeling" :/ jsut kidding ;)
March 7 2009, 10:41 pm by andres1 |
lol, copy and paste
good job to whoever made it
+1   March 8 2009, 04:20 pm by xRCRx |
wow... nice job... 1# tab on ultimateguitar
it took me like 10 minutes to scroll down to the bottom of the page
respect to whoever took the time to tab this out
March 9 2009, 06:30 pm by 24fretsftw |
Led Zeppeling Rock!
sorry guys couldn't help myself...such a perfect tab, one little g, and now it's ruined :D
only kidding, this tab is awesome, copied or not. KUDOS!
-4   March 10 2009, 10:22 pm by Gibson02 |