by Eagles tabs | tabbed by Unregistered
1 2 3 4 5
200 votes
print
View: All Comments Corrections
+2   September 6 2004, 12:00 am by vhhendrixcrazy |
thanks for the great ratings, guys! i appreciate it. and by the way, I'm the one who transcribed this tab, so i get all the credit. thanx!!
-7   September 16 2004, 12:00 am by Civil_War |
by the way the beginnings a bit mixed up
+4   February 10 2005, 12:00 am by Justin Weber |
Are you retarded, the beginning, the middle, the end and the entire solo is 200% right. It took me awhile and after some frustration and many hours, I can play it with the CD. Wonderful Tab.
+2   February 28 2005, 12:00 am by ledzeprzj51388 |
hmm, i dont know. it all sounds right escept for the end, but then again i havent gotten a chance to play a long with the actual song yet, but regardless, still kinda sounds funky at the end
-1   March 19 2005, 12:00 am by Sumfartyuno |
(4:28)
E--------------------------------------10----------------7-----10^^--
B-----7--------------7-------------10^----10^r-7-10-8^-----7---------
G-7-9---7--------7-9---7---------------------------------------------
D---------9-7-9----------9-7-9--7------------------------------------
A--------------------------------------------------------------------
E--------------------------------------------------------------------

(4:35)
E-10--10^r-7-----10------------------10------------------------------
B------------10^----10^r---8-----------------------------------------
G-----------------------------x-x-9^----9^r---7---7p6--7-------------
D--------------------------------------------------------------------
A--------------------------------------------------------------------
E--------------------------------------------------------------------

this part should be like this....

(4:28)
E--------------------------------------10----------------7-----12^---
B-----7--------------7-------------10^----10^r-7-10-8^-----7---------
G-7-9---7--------7-9---7---------------------------------------------
D---------9-7-9----------9-7-9--7------------------------------------
A--------------------------------------------------------------------
E--------------------------------------------------------------------

(4:35)
E-10-12p10^r-7-----10------------------10----------------------------
B-------------10^----10^r---8----------------------------------------
G-----------------------------x-x-9^----9^r---7---7p6--7-------------
D--------------------------------------------------------------------
A--------------------------------------------------------------------
E--------------------------------------------------------------------
-9   May 3 2005, 12:00 am by metalhead2 |
your right teh end is messed up you suck yhendrixcrazy
-4   May 13 2005, 12:00 am by KrazyKingsFreak |
the solo sounds alright. the ending is wayyy wrong buddy. i'm just gonna comment on part of it.

Riff 1: (5:39)
E-14-------14-------14-------14-------14-----------------------------
B----15-------15-------15-------15-------15--------------------------
G-------16-------16-------16-------16-------16-----------------------
D--------------------------------------------------------------------
A--------------------------------------------------------------------
E--------------WRONG-------------------------------------------------

this is right

Riff 1: (5:39)
E-14p10----14p10----14p10----14p10----14p10--------------------------
B-------12-------12-------12-------12-------12-----------------------
G--------------------------------------------------------------------
D--------------------------------------------------------------------
A--------------------------------------------------------------------
E--------------------------------------------------------------------

if you listen closely, it's played like this. pull-off then play the B on the B string. just listen. this is correct.

~Brittany
-5   November 8 2005, 05:59 pm by Kidd_Vicious696 |
you guys make no sense. if the tabs "wrong" why does it have a 5 star rating? i guess i make no sense either. the ending does sound off..
December 10 2005, 09:11 am by mattack |
you got a couple of parts mixed up. i was gonna submit my "correct version" but it got rejected for some reason. i think it was because their are too many versions on the site, but theyre all wrong one way or another.
+1   December 23 2005, 10:52 am by gunz n zepplin |
great song, great tab
peace
+9   February 1 2006, 07:42 pm by greendayguitar |
Just check out all the tabs for the solo, find all the parts in each one that are right, and mix 'em together...voila! a 100% corect tab!

BTW, ncie tab man;)
+3   February 7 2006, 08:34 am by linkinmark |
greenday's right...just mix em all!! ;-)
+3   March 10 2006, 03:53 pm by GuitarGuy1133 |
who cares. i give the guy props for tabbin the think out. i wouldnt have the patience to do it.
-5   March 24 2006, 07:58 pm by sexihobo |
greenday is gay

(not the person)
April 8 2006, 10:00 pm by Geekis_Khan |
It's slightly off in some parts, as these people have said, but who cares? It's still a good tab, and the time markings for each part are REALLY helpful.
-1   April 17 2006, 01:13 am by xacks_03 |
uummmmm guyz.. can u tell me? what version of the tab of the solo is the most accuratest!!! in this so many version? bcoz i will print to study..;-(
-1   April 23 2006, 09:19 am by Nielsyboy |
i don't get it ??? :S

May 19 2006, 11:36 pm by little papa |
Great tab... the time markings allowed me to slow down the real song and learn it piece by piece. There are a few mistakes but not many. nothing major. This is a good song to slow down and learn because you can really make out the guitar over everything else and catch every note played... I gave it ***** (stars).
June 14 2006, 10:08 am by 8butler9 |
MINT ,,im likeing this solo,, CHEERS

"Shine on Syd Barrett"
+1   June 18 2006, 08:55 pm by metaljunkie22 |
this tab is awesome, i play the end differently but its the same notes
August 10 2006, 04:28 pm by g14classified |
i think for the last line that u mustve accidentaly put the notes on the wrong string because they work out good if u move them down one string. instead of the strings ebg it should be bgd. good tab tho
+4   August 14 2006, 07:02 am by reenybeanz |
hey kool tab big ups for even posting it!!! man u must be pretty patient and talented. :) and to all those who made the "other" comments about where he went wrong, keep it to ureself, its not like you have to play it HIS way. if you dont like it, dont comment, you're wasting space on this page. :P
+1   August 20 2006, 09:15 pm by LJTPerry |
Not 100%, and the ending is a bit sketchy. But it is a very good tab, and for the mostpart it is right.
October 15 2006, 01:06 am by shindao |
awesome tab! the end is a bit wrong, but it's at least 90% correct!
December 26 2006, 01:41 pm by SRV16 |
awesome and the time bit helps aswell
+1   January 13 2007, 12:57 pm by pieman4567 |
HOLY SHITT!!!!!!!!!!!!!AWESOME TAB!!!!!!!!!!!!!!!!!!!!!!!!!!!!!!!
January 13 2007, 12:57 pm by pieman4567 |
one more time...holy shit awesome tab
January 14 2007, 05:05 pm by guitarkid881 |
absolutely awesome tab, such a great song too.
April 1 2007, 06:50 am by j.page91 |
so perfect... ah, and a nice job for the tab too!
April 13 2007, 01:08 am by gakkung85 |
yeah its very nice and i kinda liked it!
just add some hammers to make it more dramatic hehe!
+1   May 16 2007, 08:20 am by Paul Lambeth |
It's very nice.

KrazyKingsFreak:
Those are the same notes, it's silly to say "WRONG" when it's just a slightly different way of playing it ;).

I would say the last riff sounds slightly off... but hey, the rest is flaming perfect. Nice one!
+10   May 17 2007, 10:31 am by Paul Lambeth |
The ending (just gonna tab out the little parts):

e|-14p10----------|----------------18-|
B|-------12--(x5)-|-17p14-----(x3)----|
G|----------------|-------15----------|
D|----------------|-------------------|
A|----------------|-------------------|
E|----------------|-------------------|
and the other parts, like that ^, go:

e|----------|-----------16-|---------|----------14-|
B|-17p14----|-17p12--------|-15p12---|-15p10-------|
G|-------14-|-------13-----|------12-|------11-----|
D|----------|--------------|---------|-------------|
A|----------|--------------|---------|-------------|
E|----------|--------------|---------|-------------|

e|-------|---------14-|
B|-12p8--|-14p11------|
G|-----9-|------11----|
D|-------|------------|
A|-------|------------|
E|-------|------------|

To me that sounds right :) It's a lot easier, feels a lot cooler to play too :P.
July 18 2007, 06:37 am by Audio) |
ALGUIEN QUE SEPA ESPAŅOL por favor digame que es y como se hace esto:

"r" , "^" y "^^"

toy aprendiendo a tocar y no se kes eso =S
-2   July 18 2007, 06:48 am by Audio) |
oooooo y tambien diganme ke demonios es la X?????
+1   July 22 2007, 04:15 am by SRV16 |
awesome tab, what scale and keys this in?
btw ending sounds fine to me
July 24 2007, 12:39 am by shellshock1911 |
B Minor
-2   September 18 2007, 05:30 pm by O-52-A-50-R |
(Repeat 5x) (Repeat 5x)
e|------------|-2-----------|-0----0----0----4/6-|-0-----------|----------------2/4-|
B|------------|---3---------|---2----2----2------|---2---------|-3----3----3--------|
G|------------|-----4-------|-----3----3---------|-----2-------|---4----4----4------|
D|------------|-------------|--------------------|-------------|-----6----6---------|
A|------------|-------------|--------------------|-------------|--------------------|
E|------------|-------------|--------------------|-------------|--------------------|

Guitar 2 Nylon Acoustic
(Repeat 5x) (Repeat 5x)
e|---------------------|---------------|----------------|---------------------------|
B|-3-------------------|-3--3--3--3/7--|-0--------------|-2-----2-----2---2/7-------|
G|--4------------------|--2--2--2------|--0-------------|---3-----3-----3 ----------|
D|---5-----------------|---4--4--------|---2------------|-----4-----4---------------|
A|---------------------|---------------|----------------|---------------------------|
E|---------------------|---------------|----------------|---------------------------|

September 18 2007, 05:31 pm by O-52-A-50-R |
^^^^^^^^^............for the ending. Got it from another version and changed some of it.
September 20 2007, 03:36 pm by Zhuey |
Excellent tab dude i gave it 5 stars :)
+2   September 25 2007, 05:50 pm by DitatDeus |
(5:26)
E-10----9---7---------------------------14----12-10------------------
B----10---8------10---8--------------------10------------------7---8-
G-------------11----9-----7-----------7-------------12^r--11---------
D-----------------------7---7\5-4-5/7--------------------------------
A--------------------------------------------------------------------
E--------------------------------------------------------------------

i'm dying over here, man!
+1   October 22 2007, 07:07 pm by envyonthecoast |
nice one. a few minor adjustments need to made, for example, it should start like this:

----------------------
-------10h12--12b(15)-
-9h11-----------------
----------------------
----------------------
----------------------

also, you didn't tab any of the harmonised parts but what you have got is good. nice work. i might have a go at tabbing this one day.
November 4 2007, 10:28 am by fila_93 |
Very good tab. Thanks as hell for the time markings, helps a lot!
February 11 2008, 10:20 pm by Jedman2000J |
Hae bro dw bowt otha pple u did real awesume job on dis tab
-1   March 21 2008, 12:29 am by westvipor |
Notice how the solo starts on 4:20.

National Pot Day.
Horray for Pot!!!


Great tab by the way. perfect
+4   April 26 2008, 04:25 pm by Jasmith |
**** the people who think this is wrong!
its awesome!
May 17 2008, 10:11 pm by caesar_rock_god |
its not all wrong, get the ending from Paul Lambeth up a little bit, thats what sounds the closest to me
May 21 2008, 06:19 pm by The*Reaper |
It's actually 4:19.
+2   May 25 2008, 02:15 am by uncoplayer |
hmmm.... i tried to do the first string bend on my telecaster and just snapped the string...... great
+1   July 11 2008, 08:45 pm by P0undc4k3 |
hold on, I just have to quote this kid named kidvicious 696 from above: "you guys make no sense. if the tabs "wrong" why does it have a 5 star rating?"

Do I need to make fun of that, or will you guys just laugh for me?

decent tab anyway *****
July 26 2008, 05:57 pm by flirt boy5 |
the last line of riff 1 shold be this:

E---------------------------------------------------------------------------14-
B-12-------12-------12-------12-------12---------14---------14------14---------
G----12-------12-------12-------12-------12---------15--------15--------15-----
D-------14-------14-------14-------14-------14---------16--------16------------
A------------------------------------------------------------------------------
E------------------------------------------------------------------------------

you have to take the 12-12-14 part down a string and the 11-11-11 is actually 14-15-16
+5   July 26 2008, 05:59 pm by flirt boy5 |
the last line of riff 1 shold be this:

E---------------------------------------------------------------------------14-
B-12-------12-------12-------12-------12---------14---------14------14---------
G----12-------12-------12-------12-------12---------15--------15--------15-----
D-------14-------14-------14-------14-------14---------16--------16------------
A------------------------------------------------------------------------------
E------------------------------------------------------------------------------

you have to take the 12-12-14 part down a string and the 11-11-11 is actually 14-15-16
+1   August 28 2008, 11:36 am by money55 |
****ing lesbian
September 8 2008, 01:21 am by bloodletter55 |
Great tab I will work on learning this song deffinately good for exercising those bends >.
September 9 2008, 02:07 pm by Absyth |
Nice!
This solo is ~intermediate?
October 1 2008, 05:26 pm by guitar121 |
Flirt boy5 is correct :)
+1   November 17 2008, 10:14 pm by Guns&Rosesman49 |
This is a fantastic tab, 5*. the ending does sound slightly off, but everything else is 100%. great work!
-1   December 15 2008, 01:56 pm by money55 |
for **** sake write a good tab!
-2   January 19 2009, 10:13 am by craigy2oo6 |
weres the bends
March 10 2009, 06:48 pm by Solo427 |
E-10----9---7---------------------------14----12-10------------------
B----10---8------10---8--------------------10------------------7---8-
G-------------11----9-----7-----------7-------------12^r--11---------
D-----------------------7---7\5-4-5/7--------------------------------
A--------------------------------------------------------------------
E--------------------------------------------------------------------

i cant get this part right =(
March 10 2009, 07:37 pm by Naminator |
Excelent Tab !! 5 start for you. Just to say..

(4:54)
E-----------------------7----------10--------------------------------
B--------7----------10^---10-7-10^----10-12-11--10-9~----------------
G-11^--9---7-----------------------------------------------------14^-
D-------------9--7---------------------------------------------------
A--------------------------------------------------------------------
E--------------------------------------------------------------------

Tis part the [11^] should be a FULL BEND istead of a bend. But it's a very minor mistake.
September 12 2009, 09:21 am by sir strumalot00 |
Can someone please give me the CORRECT riff for the last part PLEASE...
September 21 2009, 09:00 pm by Rock0nZeppelin |
(4:35)
E-10--10^r-7-----10------------------10------------------------------
B------------10^----10^r---8-----------------------------------------
G-----------------------------x-x-9^----9^r---7---7p6--7-------------
D--------------------------------------------------------------------
A--------------------------------------------------------------------
E--------------------------------------------------------------------

This part is giving me a headache! I hate bending soo much.
+1   November 5 2009, 10:00 am by Dhanaji Shirke |
can some please upload a video of this solo played with THIS tab? i been practicing a lot while trying to play with the song. perhaps a video played with THIS tab played the way it is supposed to be played with help me
-2   February 23 2010, 04:45 pm by Spacefreak33 |
nope...thats all i have to say
November 21 2010, 12:01 pm by ryan_jenkins35 |
this is great but hard.im gonna learn a bar everyday.then hopefully ill get it.
December 8 2010, 10:04 pm by guitars6553 |
i love you
March 19 2011, 10:52 pm by FernandO_o |
Great tab, but what tempo is it in?
October 16 2011, 06:39 am by Brant Alan |

(5:26)
E-10----9---7---------------------------14----12-10------------------
B----10---8------10---8--------------------10------------------7---8-
G-------------11----9-----7-----------7-------------12^r--11---------
D-----------------------7---7\5-4-5/7--------------------------------
A--------------------------------------------------------------------
E--------------------------------------------------------------------


I've made a few alternatives if this is too painful for you to play. (Myself included)
1. This first one is closer to his original but I changed the first high E 7 to a B 12.
which makes it a lot easier to hold the fingering and simply slide down the notes.

(5:26)

E-10----9--------------------------------14----12-10-----------------
B----10---8--12---10---8--------------------10-----------------7---8-
G--------------11----9-----7-----------7-------------12^r-11---------
D------------------------7---7\5-4-5/7-------------------------------
A--------------------------------------------------------------------
E--------------------------------------------------------------------


2. This one is a little different and a little clunkier for my taste but it's an alternative which lets you play in the same area and not as many frets being played right next to each other.
Also note the movement of the middle part down to A and D on the 12th string.

(5:26)

E-10----9---------------------------------------------14----12--10--------------------
B----10---8--12------------------------------------------10---------------------7---8-
G---------------11--14--9--12--------------------------------------12^r--11-----------
D--------------------------------12---------------12----------------------------------
A-----------------------------12----12-10\9-10/12-------------------------------------
E-------------------------------------------------------------------------------------


*I don't know how to use the tab tag so hopefully this looks right and or I can edit/delete this if it goofs.
December 23 2011, 01:29 pm by pavlouG9 |
great great and again great!! perfect tabs, well done my friend
June 14 2012, 11:07 am by spongemonkey95 |
The last riff was simply just put a string too high. Should be:
E----------------------------------------------------------------------14-
B-12-------12-------12-------12-------12-------11-------11----------------
G----12-------12-------12-------12-------12-------11-------11----11-------
D-------14-------14-------14-------14-------14-------11-------11----11----
A-------------------------------------------------------------------------
E-------------------------------------------------------------------------
February 2 2013, 12:20 am by osumpacman |
blows mah mind ever time yo
great tablature skillss
February 2 2013, 12:20 am by osumpacman |
blows mah mind ever time yo
great tablature skillss
May 11 2013, 01:03 pm by billy_maher |
el "^" es una curva
el "^ ^" es una curva completa
el "r" es una curva comunicado
y la "x" es una nota silenciada
-2   December 6 2013, 08:16 am by kristiantheil |
Actually there's an obvious mistake in the last triplets of 11's.

So maybe you should hold back on the name calling before you say something retarded yourself ;)
-1   January 31 2014, 03:29 pm by VanHalen97 |
A lot of this actually isn't correct, coming from an advanced guitarist with 9 years for experience.
June 10 2014, 06:55 pm by snjben |
Great tab, just learning this one now and it sounds spot on
Please select
Post your    Comment OR Correction :

NOTE: If you want to post a tab,
please use [tab] [/tab] tag to do this.
© 2014 Ultimate-Guitar.com or its affiliates. All rights reserved     About | Help | Site Map | Link To Us | TOS | Privacy Policy | Advertise | Contact