#1
Hi there, fellow musicians,

To briefly introduce myself, I am an austrian guitarist playing now for about 3 years.
Usually I am into playing all different kinds of metal ( ), but recently also into spanish acoustic guitar songs (whew that was as brief as possible ).

OK it's crunch-time:
Does anyone have or know how to get the tabs for the Bleach OST 3 song "fiesta de guerra"? Really cool song, like all the spanish-sounding songs from the OST. I've searched the WHOLE internet but didn't even get a single line I'd really appreciate it if anyone with a higher tabbing-ability than me (mine: 0 ) could tab it out, cuz I'm starting to get crazy about this, hearing this song all the time but not being able to play it.

thx in advance,
Tae
#2
*reviving thread*

Cmon guys, isnt there anYone out there who has some time to spend on this tab -.-

Hoping for replies,
Tae
#3
I'm Workin On it on GP! it's not finished yet cuz i'm not a pro! but i'll do it later if a hav enough time! here is my add if u wanna got it sofian_hubb@hot.com
#4
Thanx man, already lost all hope that anyone would help me out =)
#5
I need the tabs too>.< i already emailed soifez for it but no replies were given..

@Taerok.. can you send the tabs to me if u have it ? =D
#6
I'll inform you if i get them, but it looks like no one on the fricken internets has already tabbed them out :-/
please post here if you find out anything before me ok
best regards,
tae
#8
Im currently looking for Bleach OST 3 tabs as well. After seeing the whole season in english I can't help but not learn how to play Shiro's flamenco guitar songs! I've been playing for about 5 years now and love the flamenco style and believe that there are no existing tabs for "fiesta de guerra" yet or any of the bleach ost 3 tracks yet. Your best bet is to look into youtube spanish guitar lessons and learn the fundamentals to flamenco just as Shiro did then start tabbing out slowly by ear. Im trying it now anyways shouldn't take forever but its the best bet. Good luck to all of you musicians out there looking for the tabs!
#9
well whats clear is that there is 2 guitars and the rythem guitar is just Am G F E the whole song
#10
I know its been a while but could you please also send the tabs to my account as well??

If you can send them in txt format please.... i dont have gp yet
#11
At least the intro;


Intro:

e|----------------------------------------------------------------------------|
B|-----------------------------------------------------------------------3----|
G|-------------------------------------------------------------------1--------|
D|------------------0-2-3p2p0--2h3p2h3---2h3-----------3------------|
A|---------0--2-3--------------------------------------------2---------------|
E|---0--4-------------------------------------------------0-------------------|

e|-----------------------0----------------------------------------------------------------------------|
B|------------0--1--3-------3p1--------------------------------------------------------------------|
G|---------2-------------------------2/1-----------1-2---3p2p1------------1--2-3-2-1h2p1---|
D|------3----------------------------------3-2/3-------------------3--2/3-------------------------|
A|---0------------------------------------------------------------------------------------------------|
E|-----------------------------------------------------------------------------------------------------|

e|-------------------------0-------------------------------------------------------------------|
B|-------------------------3---------------------------6--5h6-------------------------------|
G|------------1-----------1-----------------------5-------------7--5--4/2/1---1-2---2---|
D|----2---3------3-------3----------------5/7---------------------------------------3---3-|
A|-------------------------2------------3-----------------------------------------------------|
E|-------------------------0--------1---------------------------------------------------------|

e|-----------------------------------------------------------------------0--------|
B|-----------------------------------------------------------------------3--------|
G|-----------------------------------------------------------------------1--------|
D|--3p2p0-----0-------------------------------------------0--2-3----3--------|
A|------------3-----3p2p0------0---------------0---2-3--------------2-------|
E|-----------------------------4------1--0-1--4------------------------0-------|


e|-----------------------------------------3p1---0-----0--1--3---3/4---3----------------|
B|---1p0-----0---1p0---1--3--1------------------3---------------------------------------|
G|---------2----------------------------------------------------------------------------------|
D|---------------------------------------------------------------------------------------------|
A|---------------------------------------------------------------------------------------------|
E|---------------------------------------------------------------------------------------------|
#13
nice song ... i loved all lyrics...everyone would like to listen even.......
#16
Can anyone please put the tabs into Guitar Pro format or Tuxguitar? it would be very appreciated.