StrykVladzimsky
ESP through Potato
Join date: Aug 2010
2,585 IQ
#1
http://www.youtube.com/watch?feature=endscreen&v=Ts2JIYukNxw&NR=1

It starts at 1:09 and I tried to tab it out but I only got down a couple strings. I'd really appreciate if someone could just suss it out for me so I can add it to my warmups.

Cheers!
Quote by luxeion
i keep asking my dad for wood. but he keeps getting annoyed (he's working on a house). and i'm too young to go outside.

StrykVladzimsky
ESP through Potato
Join date: Aug 2010
2,585 IQ
#3
That's great!
Quote by luxeion
i keep asking my dad for wood. but he keeps getting annoyed (he's working on a house). and i'm too young to go outside.

Jackson kv
Registered User
Join date: Apr 2009
1,074 IQ
#4
Drop c tuning

FIRST RUN
|-12-11-9---9-------------------------------------------------------------|
|--------12--12-10-9--10-9------------------------------------------------|
|-------------------------11-9--11-9-8----8-------------------------------|
|-------------------------------------11----11-9-7--9-7-6---6-------------|
|---------------------------------------------------------9---9-7-6-7~~~~-|
|-------------------------------------------------------------------------|
SECOND RUN
|-12-11-9---9-------------------------------------------------------------|
|--------12--12-10-9--10-9----------------------------------10--9.--------|
|-------------------------11-9--11-9-8-----9-8-11---9-13--11------9-9~~~~-|
|-------------------------------------9--11-------------------------------|
|-------------------------------------------------------------------------|

|-------------------------------------------------------------------------|
StrykVladzimsky
ESP through Potato
Join date: Aug 2010
2,585 IQ
#5
Whoah! Those sound spot on, thank you!
Quote by luxeion
i keep asking my dad for wood. but he keeps getting annoyed (he's working on a house). and i'm too young to go outside.

whywefight
~I'm not fuckin around~
Join date: Dec 2010
1,725 IQ
#6
He looks like Avril Lavigne in that vid. Great job Jackson
StrykVladzimsky
ESP through Potato
Join date: Aug 2010
2,585 IQ
#7
Why, slap my ass, pierce my superflous third nipple and call me Gwendoline. He does!!!
Quote by luxeion
i keep asking my dad for wood. but he keeps getting annoyed (he's working on a house). and i'm too young to go outside.