#1
There's an arpeggio in the song which I'm not quite sure how to finger it:


-19-14----------------------14-19-14----------------------14-----------------
------15------------------15--------15------------------15-------------------
--------16-\11------11-/16------------16-\11------11-/16---------------------
--------------12--12------------------------12--12---------------------------
----------------14----------------------------14-----------------------------
-----------------------------------------------------------------------------
My fingers always end up a mess, as I can't find a decent fingering
#3
Thats a really stupid way of playing that arpeggio shape. Try this.

19 14
------15
----------16
-------------16
----------------17---14

Thats just half, follow it in reverse for the other half.
Whats the longest word?


Quote by timzee117
smiles

because theres a mile between the two s's!


/killme