shtelio
Registered User
Join date: Dec 2012
21 IQ
#1
hello there!
can someone help me?
i do really need tabs for this song.

Devendra Banhart - The Spirit Is Near.

It is very short and i think you will not have any problem in helping me
please, please
DON CZARSKI
Tab Contributor
Join date: May 2008
38,954 IQ
#2
WITH CAPO ON 1st FRET:
Cm , Gm, Bbm, Fm

WITHOUT CAPO:
C#m, Abm, Bm, Gbm
Last edited by DON CZARSKI at Dec 18, 2012,
crmrz
Registered User
Join date: Oct 2005
4,803 IQ
#3
Intro:

e|--------------8-----7-----7------------------------------------------------|
B|----------8---------7----------7--------------------------------------------|
G|-------8------------7--------------------------------------------------------|
D|---------------------7-------------------------------------------------------|
A|---0----------------5--------------------------------------------------------|
E|---------------------------------------------------------------------------|


verse:

e|------7--------------------------------6-----5--------------------------------|
B|------7----6---4--6---4---7---------8-----7--------------------------------|
G|------7-------------------------4-----7-----6---------------------------------|
D|------7--------------------------------8-----7---------------------------------|
A|------5---------------------------------------5---------------------------------|
E|----------------------------------------------------------------------------------|