#1
hey guys...i dont really know alot of music theory but i was jamming and i came upon with those 2 chords .,..can anyone please help me by telling me thier names ^_^


-----------X------------
-----------X------------
----------12------------
-----------8------------
-----------10------------
------------X------------

and this one

-------------X----------
------------ 9-----------
-------------8----------
-------------6---------
-------------7---------
-------------X---------
#2
G minor, E major.

but if you don't know theory, i'm not sure of what use it'll be to you.
Anfangen ist leicht, Beharren eine Kunst.
#3
There should be a sticky called "What chord is this", about... well... asking what chord this or that is.

The answer should be simple. Learn basic music theory and this Link Chord Designer
Last edited by Deadds at Dec 28, 2012,
#6
the first bit is a dyad so name that chord is inappropriate OOOOOOOOO
Quote by theogonia777
Hail killed MT

Quote by jongtr
I want to be Hail when I grow up.
#7
Quote by Hail
the first bit is a dyad so name that chord is inappropriate OOOOOOOOO


Yeah you've got a G octave (The 10 and 12) which means you only have two different notes.

It's leaning towards Gm however.