#1
Hello, I am requesting chords for the song Upside Down by Sons of Pitches. It should be a simple song to play however I am having a hard time figuring out exactly what chords are used. I can get it to sound almost right but not close enough for me to be happy with.

I have a link to where you can hear the song if you have never heard it, it is not on youtube so if you would like to help I suppose you can PM me as I believe the forum rules prohibit links.
#3
Some Chords:
Gm7:3x333x
C9:x3233x


Verse:
Gm7 C9 (many times)

Strum:
e|---0---2---3-----0-------------------------------------------------------------|
B|---1---1---1-----1-------------------------------------------------------------|
G|---2---2---2-----3-------------------------------------------------------------|
D|---0---0---0-----2-------------------------------------------------------------|
A|-------------------3-------------------------------------------------------------|
E|----------------------------------------------------------------------------------|

Chorus?
C7 B7 Em B7
C7 B7 Em D

Outro:

D7 D7 D7 D7 Db7 Db7 Db7 Db7 C7

e|-------------------1--------------------------------------------------------|
B|-------------------0--------------------------------------------------------|
G|-------------------0--------------------------------------------------------|
D|-------------------0--------------------------------------------------------|
A|-------------------2--------------------------------------------------------|
E|-----1---2---3---3--------------------------------------------------------|