C.Burnzy
Registered User
Join date: Aug 2010
424 IQ
#1
I was randomly picking away earlier, seeing if any cool riffs or chord progressions came out, and I started picking a short riff which I immediately realized was already a song. However, I cannot for the life of me remember what the song is. And it's bugging the hell out of me. Here's the tabs for it:

E|--------------------|
B|--------------------|
G|--------------------|
D|----------------7---| x4
A|--------9-----------|
E|7-------------------|

E|--------------------|
B|--------------------|
G|--------------------|
D|----------------7---| x4
A|--------7-----------|
E|5-------------------|

The first note of each measure is played on the first beat of the measure, the second played in between the second and third beats, and the third note is played on the fourth beat. Each bar is repeated four times, and then moved on to the next bar, which is also repeated four times, and this riff is repeated throughout at least the verses of the song. Can anyone please help me out, and tell me what song this is?

P.S. I know this song was on an episode of the OC.

P.P.S. Yes, I watch the OC. It's one of my guilty pleasures.