dantarantula
Registered User
Join date: Apr 2011
76 IQ
#1
Hi guys,

This song is really driving me mad, i want to learn how to play it but i cant figure out where some of the notes are, its between G and Em (i think) but there are some notes in the arpeggio that arnt in those chords( hope that makes sense) and i would be MASSIVELY appreciated if someone could help me out.

www(dot)youtube(dot)com/watch?v=T0c17PZHIqU

(/watch?v=T0c17PZHIqU)

Thanks For reading.
Kind Regards
Carl_Berg
Tab Contributor
Join date: Mar 2010
881 IQ
#2
If you're referring to the intro, it's a minor9 chord followed by a minor chord.
dantarantula
Registered User
Join date: Apr 2011
76 IQ
#3
Gm9? im not sure thats right, whats notes are you playing in that chord G - A# - D - F - A ? because that sounds wrong. any advice?
Dan
fanapathy
B-Tuned
Join date: Jul 2010
1,983 IQ
#4
Intro goes like

E |----------------------------|----------------------------|
B |----------------------------|----------------------------|
G |-----------0----------------|-----------0----------------|
D |--------4-----4-------------|--------4-----4--------0----|
A |-----2-----------2-----2----|-----2-----------2----------|
E |--3-----------------3-------|--3-----------------3-------|

                                                          
----------------------------|----------------------------|
----------------------------|----------------------------|
-----------0----------------|-----------2--------0-------|
--------2-----2--------2----|--------2-----2--------0----|
-----2-----------2----------|-----2-----------2----------|
--0-----------------0-------|--0-------------------------|

                                                          
----------------------------|----------------------------|
----------------------------|----------------------------|
-----------0----------------|-----------0--2--0----------|
--------4-----4--------0----|--------4-----------4-------|
-----2-----------2----------|-----5-----------------5----|
--3-----------------3-------|--5-----------------5g------|

                                                 ^
----------------------------|----------------------------||
--------------0-------------|--------------------0-------||
-----------0-----0----------|-----------2--0-----0-------||
--2-----2--------------2----|--------2-----------2-------||
-----2--------------2-------|-----2----------------------||
--0g------------------------|--0-------------------------||


Bars are like.. Gm7 (no 5), Em, Esus4, Gm7, D/A, Em, Esus4/Em
Edit: Bar 6 you can obviously play as open strings first to make it easier. G = ghost note, it's there but not accentuated
Last edited by fanapathy at Feb 17, 2013,