#1
Hi all, this is my first post.

Please would someone help me with the intro tapping part for Ministry, Gouldiggers.
I can generally work out a song but the tapping parts i seem to struggle with.
hopefully someday I will be able to help someone here tab a song.

Thanks
#2
Well the specific note durations are very weird and random. They're not triplets and not..well they're not anything imo Rather listen to the song to get it "right".

Anyway these are the notes

        T          T          T          T     

E||-------------------------------------------|
B||-------------------------------------------|
G||-------------------------------------------|
D||--7-12p--0--7--12p--0--7--12p--0--7--12p-0-|
A||-------------------------------------------|
E||-------------------------------------------|


       T        T                         
-----------------------------------------|
-----------------------------------------|
-----------------------------------------|
--7-7-12p-0-7--12p-0-7-7-12p-7--7-12p-7--|
-----------------------------------------|
-----------------------------------------|


                          T         T      
------------------------------------------|
------------------------------------------|
------------------------------------------|
--10--12p-0-10--12p-0-10-12p--0-10-12p--0-|
------------------------------------------|
------------------------------------------|


       T          T        T        T       
----------------------------------------||
----------------------------------------||
----------------------------------------||
--9h--12p--0--9--12p-0-9--12p-0-5--12-0-||
----------------------------------------||
----------------------------------------||


They're picked in some places for stronger accentuation or so but it's probably not important

This thing just seems to loop for I don't know how long
Cheers
Last edited by fanapathy at Feb 18, 2013,