MattyPS
Registered User
Join date: Dec 2009
1,221 IQ
#1
Hi there,

I am learning a little solo in which there are two parts that are difficult for me. The notes are easy but it is played quite fast. I know that I have to take it really slow, that is not my wonder.

However, I almost never play higher than the 15th fret and I don't really know how to place my fretting hand over there. Do you put your thumb over the neck or what ?


Here are the two little parts I'm talking about :



|-21-17----------17-21-17----------17-|
|-------19----19----------19----19----|
|----------18----------------18-------|
|-------------------------------------|
|-------------------------------------|
|-------------------------------------|


|---------------------------------|
|--------------------------17-19--|
|-----------------16-18-19--------|
|-16-----16-18-19-----------------|
|---------------------------------|
|---------------------------------|


Thanks
tappooh
Registered User
Join date: May 2011
1,223 IQ
#2
I usually have my thumb over the neck when playing the higher frets, probably its not the best technique but it works and feels comfortable. The problem is that you cant do very big stretches although 21-17 should be doable if you angle your wrist/hand having the index finger at a 40-50 degree angle poining towards the neck pick up.
chainsawguitar
Registered User
Join date: Jun 2009
47 IQ
#3
Quote by tappooh
...angle your wrist/hand having the index finger at a 40-50 degree angle poining towards the neck pick up.


Normally I would disagree with this technique, but if the body of your guitar is getting in the way of your usual hand position, then this is a way around it.

It's not ideal, however...