tonibet72
Tab Contributor
Join date: Aug 2012
808 IQ
#2
Not exact... what is that... some sorta weird sounding nylon string guitar????
I don't think it's strumming, it felt more natural to finger pick using thumb and first 2 fingers...
    1 2 3 4 5 6 7 8   1 2 3 4 5 6 7 8   1 2 3 4 5 6 7 8   1 2 3 4 5 6 7 8
e |-----------------|-----------------|-----------------|-----------------|-
B |-----------------|-----------------|-----------------|-----------------|-
G |-------4---4---4-|-------4---4---4-|-------5---5---5-|-------5---5---5-|-
D |-------5---5---5-|-------5---5---5-|-------5---5---5-|-------5---5---5-|-
A |-----------------|-----------------|-0---------------|-----------------|-
E |-0---0--(0)-(0)--|-0---0--(0)-(0)--|---0h5--(5)-(5)--|-5---5--(5)-(5)--|-

    1 2 3 4 5 6 7 8   1 2 3 4 5 6 7 8   1 2 3 4 5 6 7 8   1 2 3 4 5 6 7 8
e |-----------------|-----------------|-----------------|-----------------||
B |-----------------|-----------------|(5)--------------|-----------------||
G |-------4---4---4-|-------4---4---4-|(4)----5---5---5-|-------5---5---5-||
D |-------5---5---5-|-------5---5---5-|(5)----5---5---5-|-------5---5---5-||
A |-----------------|-----------------|-5---5--(5)-(5)--|(5)-(5)-(5)-(5)--||
E |-0---0--(0)-(0)--|-0---0--(0)-(0)--|-----------------|(5)-(5)-(5)-(5)--||


    1 2 3 4 5 6 7 8   1 2 3 4 5 6 7 8   1 2 3 4 5 6 7 8   1 2 3 4 5 6 7 8
e |-----------------|-----------------|-----8(x)8-7-0-7-|-5-0-5-3-2-3-2---|-
B |-----------------|-----------------|---5-------------|---------------3-|-
G |-------4---4---4-|-----------------|---5-------------|-----------------|-
D |-------5---5---5-|-------5-4-5-4---|-----------------|--------(0)------|-
A |-----------------|-----7---------5-|-0------(0)------|(0)--------------|-
E |-0---0--(0)-(0)--|-0-x-------------|-----------------|-----------------|-

    1 2 3 4 5 6 7 8   1 2 3 4 5 6 7 8   1 2 3 4 5 6 7 8   1 2 3 4 5 6 7 8
e |-----------------|-----------------|-----------------|-----------------||
B |-----------------|-----------------|(5)--------------|-----------------||
G |-------4---4---4-|---4---x-4-4-4-4-|(4)----5---5---5-|-------5---5---5-||
D |-------5---5---5-|---5---x-5-5-5-7-|(5)----5---5---5-|-------5---5---5-||
A |----/7-----------|-x---------------|-5---5--(5)-(5)--|(5)-(5)-(5)-(5)--||
E |-0-sl-------(0)--|-----0--(0)-(0)--|-----------------|(5)-(5)-(5)-(5)--||


    1 2 3 4 5 6 7 8   1 2 3 4 5 6 7 8   1 2 3 4 5 6 7 8   1 2 3 4 5 6 7 8
e |-----------------|-----------------|-----------------|-----------------||
B |-----------------|-----------------|(5)--------7-8-10|-8-7-------------||
G |-------4---4---4-|-------4---4---4-|(4)--------------|-----9-7---------||
D |-------5---5---5-|-------5---5---5-|(5)--------------|-----------------||
A |-----------------|-----------------|-5---------------|-----------------||
E |-0---0--(0)-(0)--|-0---0--(0)-(0)--|-----------------|-----------------||
hope it helps!
Last edited by tonibet72 at Mar 21, 2014,
CS_Fugee
Registered User
Join date: Feb 2014
267 IQ
#4
Quote by tonibet72
Not exact... what is that... some sorta weird sounding nylon string guitar????
I don't think it's strumming, it felt more natural to finger pick using thumb and first 2 fingers...
    1 2 3 4 5 6 7 8   1 2 3 4 5 6 7 8   1 2 3 4 5 6 7 8   1 2 3 4 5 6 7 8
e |-----------------|-----------------|-----------------|-----------------|-
B |-----------------|-----------------|-----------------|-----------------|-
G |-------4---4---4-|-------4---4---4-|-------5---5---5-|-------5---5---5-|-
D |-------5---5---5-|-------5---5---5-|-------5---5---5-|-------5---5---5-|-
A |-----------------|-----------------|-0---------------|-----------------|-
E |-0---0--(0)-(0)--|-0---0--(0)-(0)--|---0h5--(5)-(5)--|-5---5--(5)-(5)--|-

1 2 3 4 5 6 7 8 1 2 3 4 5 6 7 8 1 2 3 4 5 6 7 8 1 2 3 4 5 6 7 8
e |-----------------|-----------------|-----------------|-----------------||
B |-----------------|-----------------|(5)--------------|-----------------||
G |-------4---4---4-|-------4---4---4-|(4)----5---5---5-|-------5---5---5-||
D |-------5---5---5-|-------5---5---5-|(5)----5---5---5-|-------5---5---5-||
A |-----------------|-----------------|-5---5--(5)-(5)--|(5)-(5)-(5)-(5)--||
E |-0---0--(0)-(0)--|-0---0--(0)-(0)--|-----------------|(5)-(5)-(5)-(5)--||


1 2 3 4 5 6 7 8 1 2 3 4 5 6 7 8 1 2 3 4 5 6 7 8 1 2 3 4 5 6 7 8
e |-----------------|-----------------|-----8(x)8-7-0-7-|-5-0-5-3-2-3-2---|-
B |-----------------|-----------------|---5-------------|---------------3-|-
G |-------4---4---4-|-----------------|---5-------------|-----------------|-
D |-------5---5---5-|-------5-4-5-4---|-----------------|--------(0)------|-
A |-----------------|-----7---------5-|-0------(0)------|(0)--------------|-
E |-0---0--(0)-(0)--|-0-x-------------|-----------------|-----------------|-

1 2 3 4 5 6 7 8 1 2 3 4 5 6 7 8 1 2 3 4 5 6 7 8 1 2 3 4 5 6 7 8
e |-----------------|-----------------|-----------------|-----------------||
B |-----------------|-----------------|(5)--------------|-----------------||
G |-------4---4---4-|---4---x-4-4-4-4-|(4)----5---5---5-|-------5---5---5-||
D |-------5---5---5-|---5---x-5-5-5-7-|(5)----5---5---5-|-------5---5---5-||
A |----/7-----------|-x---------------|-5---5--(5)-(5)--|(5)-(5)-(5)-(5)--||
E |-0-sl-------(0)--|-----0--(0)-(0)--|-----------------|(5)-(5)-(5)-(5)--||


1 2 3 4 5 6 7 8 1 2 3 4 5 6 7 8 1 2 3 4 5 6 7 8 1 2 3 4 5 6 7 8
e |-----------------|-----------------|-----------------|-----------------||
B |-----------------|-----------------|(5)--------7-8-10|-8-7-------------||
G |-------4---4---4-|-------4---4---4-|(4)--------------|-----9-7---------||
D |-------5---5---5-|-------5---5---5-|(5)--------------|-----------------||
A |-----------------|-----------------|-5---------------|-----------------||
E |-0---0--(0)-(0)--|-0---0--(0)-(0)--|-----------------|-----------------||
hope it helps!



what part of the song is this, ???