#1
http://www.youtube.com/watch?v=tAeKi4Mm0x8 This is the best video I could find of getting good sound quality.

http://www.youtube.com/watch?v=nUPNdQYjntY This one has better view of the fingering, but im still lost Could anyone figure out the chords for this? I've spent about an hour tonight until I realised I'm in the wrong tuning CAN ANYONE HELP!?!?!?!??!
Last edited by EdwardNyari at Oct 27, 2012,
#2
Surprising catchy song xD
I think I will try to tab this
G͔͓̅e͎͉̟̽ͬ͐̎̃͐ͨͅå͈͖͕̹̤̟̐̏͋ͅr̩͕̫̰̗s̹̳̼ͥ̒̍̄̅ͥ̚:


ESP Standard Eclipse I CTM VW
ESP LTD Deluxe H-1001
ESP LTD Deluxe Viper-1000 STBC
ESP Edwards E-EX-100STD
Warmoth Paulcaster "Tiger"
Tanglewood TW170 AS
Vox Tonelab ST
Blackstar HT-1R


#3
I've been trying to figure this out too, but I have no idea how to...

I've heard this from someone, but I have no idea if they are correct.

"The intro is:
F6 G#m6 Gm7 C9

The verse is:
F Bb7 F G#m6 Gm7 C9 F F#dim Gm9 C9"

Someone please help tell us what the exact chords are, and when to switch them

Thanks!
#5
Seems like his guitar is tuned standard 1/2 step down. With the capo on 1st it's STANDARD tuning.

Some chords:
Gm7:353333 (Gm9 can be played instead:353335)
C9:x3233x
Ebdim:xx1212
G/B:x20033
A13-A7b5:x02022-x02021
D9-G13:x5455x-xx345x
C9-F13:x3233x-xx123x
Eb9:x6566x

Intro: (2x)[F Db9 Gm7 C9]

e|------3------------4-----------3------------3-------------------------------|
B|------x------------4-----------3------------3-------------------------------|
G|------2------------4-----------3------------3-------------------------------|
D|------x------------3--------- --3------------2-------------------------------|
A|------3----0---4---------------5-----0--3----------------------------------|
E|--1---------------------0--3-------------------------------------------------|

Verse:

F F7 Bb7 Bbm7
F D9 G7 C9 F .......(Ebdim Gm7 C9)


Verse...(Bb7 F)

G/B A13 -A7b5 D9-G13 D9 G7 C9-F13 C9

..we're gonna have us some fun..F Eb9 D9
..yes in my room we're gonna have us some fun
....................G7..C9
e|---------------1--3--4--3h4p3---1------------5------3------------------------|
B|--------1--3---------------------------3--1-----3------x------------------------|
G|-1h2--------------------------------------------3------2------------------------|
D|--------------------------------------------------5------x------------------------|
A|--------------------------------------------------3------3------------------------|
E|----------------------------------------------------------1------------------------|
Last edited by crmrz at Dec 13, 2012,
#6
The one who can make a tab for this is my true hero! I really want to learn this song! Hahaha