#1
I really didnt know where to post this... But I would really love if someone could post the harmonica tabs to Nobodys Fault But mine by led Zeppelin... If someone could help me out that would be fantastic... I know certain tabs exist but i cant make out the timing in the slightest bit... anyway thanks...
#2



  W                   H        S  S  E   Q        W                  
-------------------|-----------0S-3-10~--L~----|--L~----------------|
-------------------|----------------12~--L~----|--L~----------------|
-------------------|---------------------------|--------------------|
-------------------|---------------------------|--------------------|
-------------------|---------------------------|--------------------|
-------------------|---------------------------|--------------------|


  W                    H.            Q     
--L~----------------|--L~-----------------|
--L~----------------|--L~-----------------|
--------------------|---------------------|
--------------------|---------------------|
--------------------|---------------------|
--------------------|---------------------|


  S  S S S E  S S   S   E    S S S E     S  S  S  S S S S S S S S S S S E   
----10-8-7-5------3g3-3g3--3g3-L-0----|----13-12-10-8-7---7-5-7-7-5-7---0--|
----------------5------------------3--|-----------------8-------------8----|
--------------------------------------|------------------------------------|
--------------------------------------|------------------------------------|
--------------------------------------|------------------------------------|
--------------------------------------|------------------------------------|


  S  S  S  S S S   S S S   E    S S  S E   
----13-12-10-8-7--------------------------|
-----------------8g8-9-8-9g9--9g9-L-------|
------------------------------------10-9--|
------------------------------------------|
------------------------------------------|
------------------------------------------|


  S  S  S  S S S S S S   E    S S S E     S S S S S S S S E  S S S S E   
----13-12-10-8-7-----------------------|---------------------3-3-L-0-0--|
-----------------8-9-L-9g9--9g9-8-6----|----1-1-1-1-1-1-1-1-------------|
------------------------------------9--|--------------------------------|
---------------------------------------|--------------------------------|
---------------------------------------|--------------------------------|
---------------------------------------|--------------------------------|


  S S S S S E    S S   E    S S E.     S S  S  S  S  S  S  S  S  S S S S S E   
------------0--1g3-L-1g3--1g3-L-0---|----7-10-10-10-10-10-10-10-10-8-7-5-3-0--|
----1-1-1-1-------------------------|-----------------------------------------|
------------------------------------|-----------------------------------------|
------------------------------------|-----------------------------------------|
------------------------------------|-----------------------------------------|
------------------------------------|-----------------------------------------|


  S  S  S  S  S  S  S  S  E   S  S  S  S E   
----10-12-12-12-12-12-12-12-----------------|
-----------------------------13-12-10-------|
--------------------------------------12-9--|
--------------------------------------------|
--------------------------------------------|
--------------------------------------------|


  S  S  S  S S S S   S S   E    S S E.     S  S  S  S S S S S Q    S T T E   
----13-12-10-8-7------------------------|----13-12-10-8-7---7-6----L-7---0--|
-----------------8-9g9-L-9g9--9g9-L-----|-----------------8------------8----|
------------------------------------9---|-----------------------------------|
----------------------------------------|-----------------------------------|
----------------------------------------|-----------------------------------|
----------------------------------------|-----------------------------------|


  S  S  S  S S S S   S S   E    S S  S E   
----13-12-10-8-7--------------------------|
-----------------8-8g9-L-9g9--9g9-L-------|
------------------------------------10----|
---------------------------------------9--|
------------------------------------------|
------------------------------------------|


  S  S  S  S S  T T S S S E.  S S E     S S E  S E  S S E  S S S E   
----13-12-10-8-----------------------|------------------------------|
--------------------8-----8---L------|----8-8--8-8--8-L-8--8-8-8-8--|
---------------10-8---9-L-------9----|----9-9--9-9--9-L-9--9-9-9-9--|
-------------------------------------|----9-9--9-9--9-L-9--9-9-9-9--|
-------------------------------------|------------------------------|
-------------------------------------|------------------------------|


  S S E  S E  S S S S S S S S S    S S E  S E  S S E   S E  E   
--------------------------------|------------------------------|
----8-8--8-8--8-8-8-8-8-L-8-8-8-|----8-8--8-8--8-L-8--10-8--8--|
----9-9--9-9--9-9-9-9-9-L-9-9-9-|----9-9--9-9--9-L-9---9-9--9--|
----9-9--9-9--9-9-9-9-9-L-9-9-9-|----9-9--9-9--9-L-9--10-9--9--|
--------------------------------|------------------------------|
--------------------------------|------------------------------|


  S S E  S E  S E  E  Q       S  S  S  S S S S   S S E  S E  E   
---------------------------|----13-12-10-8-7------------0-------|
----8-8--8-----------------|-----------------8-0g8-L------------|
----9-9--9-9--9-9----------|-------------------------7----7-----|
----9-9--9-9--9-9----------|------------------------------------|
---------------------------|------------------------------------|
---------------------------|------------------------------------|


   S  S  S S S S E  S E  S E  E     S  S  S  S S S E  S E  S E   E         
--13-12-10-8-7-7-----------------|----13-12-10-8-7------------------|-----|
-----------------5----5--5-3-----|-----------------5----5--5-3S--5--|-----|
---------------------------------|----------------------------------|-----|
---------------------------------|----------------------------------|-----|
---------------------------------|----------------------------------|-----|
---------------------------------|----------------------------------|-----|


Quote by zappp
emad I'm gonna ban you, seriously.
#3
that looks like guitar... i was looking for harmonica... thanks for the thought though
#4
You said you need tab for that,didn't you?
If you need notations,I can send that to you.
Quote by zappp
emad I'm gonna ban you, seriously.
#5
Quote by emad
You said you need tab for that,didn't you?
If you need notations,I can send that to you.


No I needed the harmonica tabs for it... Its diffrent then guitar...
#6
Prelude

An impassioned 9D with shades of 8D

Solo

5D..5B..4D..3D rapidly

2D 3D’..3D’..3D’

2D..2D”

6D 6B 5D 5B 4D 3D’

4D’ 4D 4D’..4D 3D 2D

6D 6B 5D 5B 4D 3D’

3D’..3D 3D’..3D 3D’..3D 2D..2D”

6D 6B 5D 5B 4D 3D’

3D’..3D 3D’..3D 3D’..3D 2D”

1D..1D..1D..1D..1D

1D 3D’..3D 3D’ 3D” 2D

1D..1D..1D..1D..1D

3D’..3D’..3D’..3D”

4D..5D…..

5D 5B 4D 3D..3D’ 2D

4D..5D…..

5D 5B 4D 3D..3D’ 2D

6D 6B 5D 4D 4B 3D..2D

3D’ 3D’ 3D’ 2D

6D 6B 5D 4D 4B 3D

4D’……….. 3D..2D

6D 6B 5D 4D 4B 3D..2D

3D’ 3D’ 3D’ 2D

6D 6B 5D 4D 4B 3D..2D

3D’ 3D’………

2D..2D 2D..2D

2D 2D 2D..2D

3D’..3D’ 3D’..3D’

3D’ 3D’..3D’..3D’..3D’…..

3D’..3D’ 3D’..3D’

3D’ 3D’ 3D’..3D’

3D’..3D’ 3D’..2D 2D

6D 6B 5D 4D 4B 3D..2D

3D 2D”

6D 6B 5D 4D 4B 3D..2D

2D 2D..2D”

6D 6B 5D 4D 4B 3D..2D

2D 2D..2D”……….. portamento up to 2D