#1
hey guys just came up with a new riff id like to actually play it to you however i dont have the means to record at all nor do i have guitar pro so unfortunately all i can do is just tab it out by microsoft word*shudders* sorry if it looks ugly ive done lead and rhythm parts for the riff so for you to see where it all fits together and ive marked on the tab where the rhythm parts are played

to begin with i was just using modes and i also had a go with C standard and Db tuning but i wasn't getting anywhere so i just improvised in the end and this was the result(note if the tab comes out skewed just paste it into MS word)

as usual C4C


legend
Q=185 roughly
*=indicates rhythm part
br=bend and release


lead"

E--------------------------------------------------------------------------------------------------------------------
B-------------------------------------------------------------------------------------------------------------
G---------------------------------------------------------------------------------------------------------------
D------------------------12br-13/17------------------------10br-11/16------------------8br-9/14---
A---------12h13h15-----------------------10h11h13--------------------8h9h11----------------------
D-12h15-----------------------*----10h13----------------------------*----8h11------------------*---------


rhythm*


E-----------------------
B-----------------------
G----------------------
D-3----3/5----4-6/5
A-3----3/5----4-6/5
D-3----3/5----4-6/5
" " "
99-------------55--------6666-------44-----444
99-------------55-----66-----66-----44-44--44
99-------------55-----66--66666---44--44--44
99-------------55-----66-------66---44--------44
99999999---55------66--------66--44--------44
Last edited by liam9564 at Nov 17, 2008,
#3
cheers will do
99-------------55--------6666-------44-----444
99-------------55-----66-----66-----44-44--44
99-------------55-----66--66666---44--44--44
99-------------55-----66-------66---44--------44
99999999---55------66--------66--44--------44