#1
Hey,
I am a bass player that started playing a year and a half ago.... so I am not good at learning songs just by listening to them. I was wondering if anyone has heard the song by John Lennon "I Know (I Know)" off the album Mind Games. I really want to play this song, but the tabs are not anywhere to be found. Would anyone be interested in tabbing this song, or know where i can find them. That would be awesome. It sounds like a really fun song to play. Thanks.

We miss ya John.

here is the song's link.

http://www.youtube.com/watch?v=qmJvo1HixOw
#3
haha you seem eager... this is what I have so far, I'll tab the rest later

Bass

G||----------------------|--------------------|----------------------|
D||--7---------5h-7-5h-7-|--------------------|--7---------5h-7-5h-7-|
A||----------------------|--0---------4-5-6-7-|----------------------|
E||----------------------|--------------------|----------------------|


----------------------|------------------------|----------------------|
----------------------|--7-----------5h-7------|----------------------|
--0-----------4-5-6-7-|-------------------5h-7-|--7-----------9-7-----|
----------------------|------------------------|------------------9-7-|

---------------------------|-------------------------|
-----------------------2-3-|--4----L---4-3-2---------|
---------------4----L------|---------4------------6--|
--5----L-5-7-8-------------|-------------------------|


--------------------------|-------------------||
--------------------------|-------------------||
--5----L-5-5-7------------|-------------------||
---------------0----L--4--|--5----------------||



the L means tied note, like I said, I'll figure out the rest later, I got the GP file of it if you would prefer that as well
Last edited by darkstar94 at Nov 22, 2008,