#1
This one's been bugging me for a while.

http://uk.youtube.com/watch?v=0-9RBhQlr_Y&feature=related

The song I'm interested starts at about 5:35 into the clip. Sorry for the long load time.

If it's any help I can tell you that it is definitely NOT standard tuning. Watching the bar chord across the whole guitar neck it looks like it's heavily re-tuned.

He pulls a

-5--5-
-5--5-
-7--5-
-7--7-
-5--5-
-5--5-

Just before they start the singer plays what sounds like all open strings and I think I've worked out the tuning for at least his guitar.

It's a D Major Arpeggio.
Highest
D
A
F#
D
A
D
Lowest

Someone has already had a stab at tabbing the song but seems a long way off (at least from this version).

http://www.ultimate-guitar.com/tabs/f/frames/headlong_tab.htm

A two part tab would be amazing but at the moment I'd love to just be able to play and sing along to the rhythm guitar. If it gets posted, please call it Headlong (Accoustic)

Thanks

PAW
#2
Hmm, ok I think I've got the rhythm guitar down to a T except for a bridge section.

Verse

D--||-0-0-0-0-(0)-5-5-5-5
A--||-0-0-0-0-(0)-5-5-5-5
F#-|-0-0-0-0-(0)-7-5-7-5
D--||-0-0-0-0-(0)-7-7-7-7
A--||-0-2-4-2-(0)-5-5-5-5
D--||-0-0-0-0-(0)-5-5-5-5

Chorus

D--||-0-0-0-0000-5-5-5-5
A--||-0-0-0-0000-5-5-5-5
F#-|-0-0-0-0000-7-5-7-5
D--||-0-0-0-0000-7-7-7-7
A--||-0-2-4-2457-5-5-5-5
D--||-0-0-0-0000-5-5-5-5


Bridge

-------------------------------|--------------------------------|-5-5-5-5
-------------------------------|--------------------------------|-5-5-5-5
----------3-------------------|-----------3--------------------|-7-5-7-5
-----------4------------------|------------4-4-4h5-5s7----|-7-7-7-7
----54--------54--5s7--5-|----54-------------------------|-5-5-5-5
-00---00--00---0----0----|-00---00---0-0---0-----0---|-5-5-5-5


Outro
-0--------------------------------------------5-
-0--------------------------------------------5-
-0--Till the end, Last chord is -----7-
-0--------------------------------------------7-
-0--------------------------------------------5-
-0--------------------------------------------5-


Verse
Verse
Chorus
Verse
Verse
Chorus
Bridge
Chorus
Chorus
Outro

Trying to work through the lead from the clip but it's not so evident. And I hate disecting my favourite songs so any help will be much appreciated.

EDIT: I've just submitted this stuff to the tabs section (all neatened up as well). Please don't stop working on your own versions or adding to the lead however. As I said, I can't work out the lead part easily.
Last edited by PAWPAWPAW at Nov 19, 2008,