#1
Could someone please tab the solo? Can´t find it anywhere. Shouldn´t be too hard.
Thanks!
#4

e|---------------------------------------------------------------------------|
B|---------------------------------------------------------------------------|
G|------13b---13br-11--13b--13--11-----------13b--13br11~--------------------|
D|---------------------------------13--11------------------------------------|
A|---------------------------------------------------------------------------|
E|---------------------------------------------------------------------------|

e|---------------------------------------------------------------------------|
B|---------------------------------------------------------------------------|
G|--11-h-13--13b--13br11-----11-h-13--11-h-13~~~-----------------------------|
D|-----------------------13--------------------------------------------------|
A|---------------------------------------------------------------------------|
E|---------------------------------------------------------------------------|

e|--------------------------------------------|-------------------14---------|
B|--------------------------------------------|----------11-14-14------------|
G|-----------------------------11-h-13~-------|-11-13-11---------------------|
D|--------------------11-h-13-----------------|------------------------------|
A|-----------11-h-13--------------------------|------------------------------|
E|---/11--14----------------------------------|------------------------------|

e|-14-----11----14----11-|-14----14b-14-h-11--14b-14-h-11--14b-14-h-11-------|
B|*---14-----------14---*|----14---------------------------------------------|
G|-----------------------|---------------------------------------------------|
D|-----------------------|---------------------------------------------------|
A|*---------------------*|---------------------------------------------------|
E|-----------------------|---------------------------------------------------|

e|-14b-14-h-11---|---14b-(14b)--14--11-----19b~~~~~~-------------------------|
B|---------------|-----------------------------------------------------------|
G|---------------|-----------------------------------------------------------|
D|---------------|-----------------------------------------------------------|
A|---------------|-----------------------------------------------------------|
E|---------------|-----------------------------------------------------------|
Quote by zappp
emad I'm gonna ban you, seriously.