#3
I love this song! I just sat down for about an hour and this is what I have...

E------0---0----0---0-------0------0----0---0----0-----------00-0----|
B------0---0----0---0-------0------0----0---0----0-----------00-0----|
G------0---0----0---0-------0------0----0---0----0-----------00-0----|
D------0---0----0---0-------0------0----0---0----0-----------00-0----|
A------7---9----5---2-------7------5----2---0----7-----------99-2----|
E------0---0----0---0-------0------0----0---0----0-----------00-0----|

======Verse=======Pre=====Chorus======== End on
===============Chorus========================

Just strum lightly. From the one live video of this song on youtube, it looks like it's pretty much how she plays it. I hope it helps!
#4
Hi guys,

im sure this song is in an open tuning, i get EADF#AD and the following chords used in the song...

D -----0--0--0---0-0--0-0---
A -----0--0--0---0-0--0-0---
f#-----0--0--0---0-0--0-0---
D------0--0--0---2/4--4/2---
A------0--0--0---0-0--0-0---
E------3--3--3---0-0--0-0----

Also an Em chord sounds good in this, just play around, I'm pretty sure that's what she is doing though, beautiful song and album for that matter. Put lots of reverb on if you can, it's a pretty crucial component to the ambience of the song itself.

Best,

Antony
#5
Thanks!!! I sat for more than an hour and didn't get the notes.... I didn't thought about changing guitar tunning... i will try your versions!

Many thanx!
#6
This tuning is much closer to the sound on the recording imo. Play around with the arrangement of the following chords.

D ------0---0----0---0-----0--0------0-0---0---0----|
A ------0---0----0---0-----0--0------0-0---0---0----|
F# -----0---0----0---0-----0--0------0-0---0---0----|
D ------0---0----0---0-----0--0------0-0---0---0----|
A -------7---7----7---7-----9--9------5-5---5---2----|
D -------7---7----7---7-----9--9------5-5---5---2----|

repeat then chorus below

D ------0---0---0---0-----0--0--0--0-----0-0--0--0--0--|
A ------0---0---0---0-----0--0--0--0-----0-0--0--0--0--|
F# -----0---0---0---0-----0--0--0--0-----0-0--0--0--0--|
D ------0---0---0---0-----0--0--0--0-----0-0--0--0--0--|
A -------5---5---5---5-----2--2--2--2-----0-0--0--0--7--|
D -------5---5---5---5-----2--2--2--2-----0-0--0--0--7--| repeat