can any of you musical prodigies figure the tab for this Will-i-am song?

#3
Guitar 1
E||-----------------------------------------2--x-x--2--x--2--x--2--2----------------------------------
B||------1--x-x--1--x--1--x--1--1----3--x-x--3--x--3--x--3--3----------------------------------
G||------0--x-x--0--x--0--x--0--0----2--x-x--2--x--2--x--2--2----------------------------------
D||------2--x-x--2--x--2--x--2--2---------------------------------------------------------------------
A||------3--x-x--3--x--3--x--3--3---------------------------------------------------------------------
E||--------------------------------------------------------------------------------------------------------

Guitar 2
E||------------------------------------------------------------------------------------------------------
B||------------------------------------------------------------------------------------------------------
G||---------------------------------------------------------------0-----8------------------------------------
D||------------------------------------------------------------------s7--------------------------------------
A||----------------------------------------------------------------------------------------------------------
E||----------------------------------------------------------------------------------------------------------

Guitar 1
E||-------------------------------------0--x-x--0--x--0--x--0-0-------------------------------------------
B||---9--x-x--9--x--9--x--9-9----1--x-x--1--x--1--x--1-1--------------------------------------------
G||---9--x-x--9--x--9--x--9-9----2--x-x--2--x--2--x--2-2--------------------------------------------
D||---9--x-x--9--x--9--x--9-9----2--x-x--2--x--2--x--2-2--------------------------------------------
A||-------------------------------------0--x-x--0--x--0--x--0-0-------------------------------------------
E||----------------------------------------------------------------------------------------------------------

Thats sounds kinda crappy but im not to great at voicing chords.
Last edited by rebel624 at Nov 26, 2008,
#4
strum *

1st guitar

----*----*------*----*--------*----*
e|--x----x------x----x--------x-----x------0----0------0-------------------------------|
B|--x----x------x----x--------x-----x------1----0------1--------------------------------|
G|--5----7-----9----x--------5-----7------0----0------2--------------------------------|
D|--x----x-----x-----7-------x------x------2----2------2------------------------------|
A|--3----5-----7----x--------3-----5------3----2------0-------------------------------|
E|--------------------5----------------------------0-------------------------------------|

2nd guitar
e|------------------------------------------------------------------0---0----0-----|
B|------------------------------------------------------------------1---0----1-----|
G|------------5--7-------------------5---7--------------5---7---0---0----2------|
D|-----5/7--------------------5/7----------------5/7------------2---2----2------|
A|------------------------------------------------------------------3---2----0------|
E|-----------------------------------------------------------------------0----------|

This part is played along with the octaves played by the first guitar...

-----*---------*--------*-------*-------
e|---8--------10-------7------5-------------|
B|---8--------10-------8------5--------------|
G|---9--------11-------9------5---------------|
D|---10------12--------9------7---------------|
A|---10------12--------7------7-----------------|
E|---8-------10----------------5-----------------|