#2

E||-------------------------|--------------------------|
B||-------------------------|--------------------------|
G||-------------------------|--------------------------|
D||-------------------------|--------------------------|
A||-------------------5~----|--L--5---------7~------7--|
E||--0----0----5s--7--------|--------7s--9-------------|



-------------------------|-----------------------------|
-------------------------|-----------------------------|
-------------------------|-----------------------------|
-------------------------|------------5----------------|
-------------------5~----|---------5-------------------|
--0----0----5s--7--------|--5h--7--------5h-7p-5--3----|



-------------------------|--------------------------|-------------------------|
-------------------------|--------------------------|-------------------------|
-------------------------|--------------------------|-------------------------|
-------------------------|--------------------------|-------------------------|
-------------------5~----|--L--5---------7~------7--|--------------------5----|
--0----0----5s--7--------|--------7s--9-------------|--0----0--0--5s--7-------|



---------------------|----------------------||
---------------------|----------------------||
---------------------|----------------------||
--5-----4------------|--2----2----2---------||
--5-----5------------|--2----2----2---------||
---------------------|--0----0----0---------||


Hey, your from Auckland, that's cool... yeah that's pretty much it, the L mean joined note apparently
Last edited by darkstar94 at Nov 22, 2008,
#4
what do you mean? you want other people to send their versions in as well? I got the Guitar Pro file if you want it