#1
hey all i was just wondering if this would be a good starting riff to a metalcore/deathcore song i'm doing.
Attachments:
song21.zip
Guitars:
Ibanez UV777P
Ibanez RGD2127FX
Ibanez RG3120TW
Ibanez RGD7321
Ibanez RG6003FM
Ibanez SA160
Jackson Slatxmg3-7
Amps:
Baron Custom Amps K88
Rivera Knucklehead TRE
Fryette Sig: X
Randall RM4 /w Modded modules
Cabs:
Mesa 4x12
Bogner 4x12
Peavey 4x12(K85s)
#4
C#||--------------------|
G#||--------------------|
E ||*-------------------|
B ||*--0----------------|
F#||---0----------------|
B ||---0----------------|


H H W
--------------------|-------------------|
--------------------|-------------------|
--------------------|-------------------|
--3--------2--------|--0----------------|
--5--------3--------|--1----------------|
--3--------2--------|--0----------------|


H H
---------------------||
---------------------||
--------------------*||
--7--------5--------*||
--8--------7---------||
--7--------5---------||

those are the chords for the rhythm. So..B5, Bm, A, G, D, C#m.
Guitars:
Ibanez UV777P
Ibanez RGD2127FX
Ibanez RG3120TW
Ibanez RGD7321
Ibanez RG6003FM
Ibanez SA160
Jackson Slatxmg3-7
Amps:
Baron Custom Amps K88
Rivera Knucklehead TRE
Fryette Sig: X
Randall RM4 /w Modded modules
Cabs:
Mesa 4x12
Bogner 4x12
Peavey 4x12(K85s)
Last edited by kylendm at Nov 22, 2008,
#5
I'm not a huge fan of generic metalcore, neither am I a deathcore fan.

But harmonically, there's nothing wrong.
If you like it, carry on with it.
I deeply regret the 6661 in my username. Siiiigh. Damn you, 14 year old me, you edgy little bastard.
#6
this is very good intro for that kind of style but you know the song must be most of solos cause it will not fit otherwise(sorry for the english)
#7
haha yeah i already figured an ending for it. click if you wanna see it. It's not the greatest but it's kinda cool.
Attachments:
end.zip
Guitars:
Ibanez UV777P
Ibanez RGD2127FX
Ibanez RG3120TW
Ibanez RGD7321
Ibanez RG6003FM
Ibanez SA160
Jackson Slatxmg3-7
Amps:
Baron Custom Amps K88
Rivera Knucklehead TRE
Fryette Sig: X
Randall RM4 /w Modded modules
Cabs:
Mesa 4x12
Bogner 4x12
Peavey 4x12(K85s)
#8
Sounds cool but its kind of wierd with triplets on the guitars over sixteenth notes on the bass drum