#1
Capo 2nd fret


|------- ----------------------------------------------
|--------5-------------------5------------------------
|------------------------------------------------------
|------------------------------------------------------
|------- 5 p 4 p 0-----------------------------------
|-----------------------------5 p 4 p 0-----4--5----

link that with:

|-----------------------0-------------------------------------------------------0----------------------
|---------------1------------1------------------x2----------------------1----------1-------------x2-
|--------2--------------------------2-----------------------------0---------------------0-------------
|----2-------------------------------------2----------------2------------------------------2----------
|-------------------------------------------------------3----------------------------------------3-----
|-------------------------------------------------------------------------------------------------------

thanks alot