#1
I was looking for at this tab of Red House (http://www.ultimate-guitar.com/tabs/j/jimi_hendrix/red_house_ver2_tab.htm) and basically, it seems completely different from my version on Are You Experienced.
E E E E E E S S S S S S S S +Q
|---------------------------7------9-7------------------|
|-10b12-10-10pb12-10------7---10-7-----10-7-------------|
|--------------------9b11-------------------9b11==(9)r--|
|-------------------------------------------------------|
|-------------------------------------------------------|
|-------------------------------------------------------|
|
| W
|-------------------------------------------------------|
|-------------------------------------------------------|
|-------------------------------------------------------|
|-------------------------------------------------------|
|-------------------------------------------------------|
|-------------------------------------------------------|


That bit, I don't hear that at all. On my album version it's more like a descending run. The rest seems to be different as well. Does anyone know what version that tab is?

Edit: I don't understand how aligning works, it's the 4th bit on that tab.
Last edited by Thunderstorm at Nov 23, 2008,
#2
what part of the song is this?

and btw you need to align those tabs properly i can't understand ****.
Traynor YCV50 Blue
epi les paul w/ SD Alnico II pros
Dunlop Slash Wah
EH Deluxe Memory Boy
Moen Jimi Vibe
Danelectro Cool Cat Fuzz
Zvex Vexter Fuzz Factory
VHT 2x12 w/ V30's
Last edited by psychokiller99 at Nov 23, 2008,
#3
Well the descending bit I'm hearing is at 00:12... that bit on the high E string I'm not hearing at all. My version is 3:44...
#4
well it looks like you edited it, but it looks worse right now. anyways, if you're talking about the very opening lick at the beginning it goes like this.

e------------------------------------------7--------------9--7---------------------------------
b-10b12-10-10b12-10-----------7-------10--7------------10--7------------------------
g-----------------------------9b11----------------------------------------9h10h11--9~~--
d------------------------------------------------------------------------------------------------
a------------------------------------------------------------------------------------------------
e------------------------------------------------------------------------------------------------

and etc. etc.

i'm pretty sure that's how you play the beginning lick

let me know if that sounds right.
Traynor YCV50 Blue
epi les paul w/ SD Alnico II pros
Dunlop Slash Wah
EH Deluxe Memory Boy
Moen Jimi Vibe
Danelectro Cool Cat Fuzz
Zvex Vexter Fuzz Factory
VHT 2x12 w/ V30's
Last edited by psychokiller99 at Nov 23, 2008,
#5
Well guess what... I just was looking for different versions of this song, and it appears that this tab is based on the 3:50 version, but my UK album has a different version.. 3:44, completely different guitar line. I don't if that's the US version? Does anyone know?
On 3:50 he says .. Oh Yeah .. at the very beginning, on the other he doesn´t.

So yeah that opening seems right for one version, but I had another one which is why I was totally confused.
Last edited by Thunderstorm at Nov 23, 2008,