#3
CAPO on 1st fret

Chords:
G: 320033
G/F#:2x0033
Cadd9: x32033
Em7: 020033
A7sus4: x02033
A7: x02023
D: xx0232
Dsus4: xx0233
F: 133211


intro and verse:
e|-----------3---------------------5-----------------------3--------------------|
B|------------------3---------------------3------------------------3------------|
G|-------0------0-----0-------0------0--------------0-------0------0---------|
D|--------------------------------------------------------------------------------|
A|-------------------------------------------------3-----------------------------|
E|---3---------------------2---------------------------------------------------|


e|--------------3--------------------------3------------------------3---------------------|
B|----------------------------3-------------------3------------------------3--------------|
G|---------0-------------0------------0------0-----0---------0-------0------0----------|
D|-----------------0h2--------------------------------------------------------------------|
A|---3----------------------------------------------------2-------------------------------|
E|--------------------------------0--------------------------------------------------------|


e|-------------------0---------------|
B|-----------------------3-------2---|
G|-----------0---------------0-------|
D|-------2----------------------------|
A|--0---------------------------------|
E|-------------------------------------|

...1st end of verse
e|-------------------0--------------------0--------------------|
B|-----------------------3-------2--------------2--------------|
G|-----------0---------------0---------------0----------------|
D|-------2------------------------------------------------------|
A|--0-----------------------------------------------------------|
E|----------------------------------------------------0-3-------|


...2nd end of verse
e|-------------------0-----------------0--------------------3-----------------3-----------------|
B|-----------------------3-------2-------------2-----------------3--------------------------3---|
G|-----------0---------------0-----------0--------------0----0-----0-----0-----------0--------|
D|-------2----------------------------------------------------------------------0h2-------------|
A|--0----------------------------------------------0-2------------------2-----------------------|
E|------------------------------------------------------------------------------------------------|

e|----------------0-----------0h2------------|
B|------------3------3-------------------------|
G|--------2--------------2---------------------|
D|----0----------------------------------------|
A|------------------------------------------------|
E|-------------------------------------------------|


chorus:
G G/F# Cadd9 Em7 Cadd9
G G/F# Cadd9 Em7 A7sus4 A7 Cadd9 D

verse....chorus...

bridge:
Em7 Cadd9 G D (2)
G Cadd9 Em7 G/F# F Cadd9 Dsus4

e|-----------3---------------------3-----------------------3--------------------|
B|------------------3---------------------3------------------------3------------|
G|-------0------0-----0-------0------0-----0--------0-------0------0---------|
D|--------------------------------------------------------------------------------|
A|-------------------------------------------------3-----------------------------|
E|---3---------------------2---------------------------------------------------|

e|--------------3--------------------------3------------------------3---------------------|
B|----------------------------3-------------------3------------------------3--------------|
G|---------0-------------0------------0------0-----0---------0-------0------0----------|
D|-----------------0h2--------------------------------------------------------------------|
A|---3----------------------------------------------------2-------------------------------|
E|--------------------------------0--------------------------------------------------------|

e|--------------3-----------------------3--------------------|
B|--------------------3------------------------3---------------|
G|--------0-------0------0--------0------0------0------------|
D|--------------------------------------------------------------|
A|---3-------------------------3---------------------------------|
E|-----------------------------------------------------------------|

G G/F# Cadd9 Em7 A7sus4 A7 Cadd9 Dsus4


outro:
e|-----------3---------------------3-----------------------3--------------------|
B|------------------3---------------------3------------------------3------------|
G|-------0------0-----0-------0------0--------------0-------0------0---------|
D|--------------------------------------------------------------------------------|
A|-------------------------------------------------3-----------------------------|
E|---3---------------------2---------------------------------------------------|


e|--------------3--------------------------3------------------------3---------------------|
B|----------------------------3-------------------3------------------------3--------------|
G|---------0-------------0------------0------0-----0---------0-------0------0----------|
D|-----------------0h2--------------------------------------------------------------------|
A|---3----------------------------------------------------2-------------------------------|
E|--------------------------------0--------------------------------------------------------|


e|-------------------0---------------|
B|-----------------------3-------2---|
G|-----------0---------------0-------|
D|-------2----------------------------|
A|--0---------------------------------|
E|-------------------------------------|
Last edited by crmrz at Dec 2, 2008,