#1
I have been trying to figure out the bass line for this song but haven't had any success. This is a great, moody, low key bass line and I simply must learn how to play it. Anyone know how to play this?

Here is a link to the youtube of the song N.E.R.D.- Provider [zero7 remix]
-ciào

the man with the bass just walked in
and he's putting it down
on the floor
Last edited by rapalaman at Nov 26, 2008,
#3
NERD - PROVIDER [zero7 rmx]
G --------------------------------------------------------
D ---------7-------------------------7---------7/9-7/9-7/9
A -------9----5/7------------------9----5/7---------------
E -5-6-7-----3----0---5-6----5-6-7-----3----0-------------


G ----------------------------------------------------
D ---------7--------------------------7---------------
A -------9----5/7-----5-7-5---------9---5/7-----5-7---
E -5-6-7-----3----0---------5-5-6-7----3------0-----0-



this is my first post and i dont REALLY know how this works BUT

This sounds pretty spot on if you ask me
I've included i think 2 variations? not the whole song but this is what i have so far

Sick tune
#4
awesome! i love this jam. thanks bro :]
-ciào

the man with the bass just walked in
and he's putting it down
on the floor