#1
Hey guys,

I'm trying to learn Interstate Love Song by STP but I'm having trouble with some of the chords in the chorus. I've looked around at different tabs and can't figure out which is the right way to play it. Right now I've pretty much settled on the following 2 chords to start the chorus off with, but after that I'm not sure. Help would be greatly appreciated, I really wanna learn this song!

The chords I'm currently using at the beginning of chorus:

|--4-----3----------
|--5-----4----------
|--4-----5----------
|--6-----6----------
|--4-----3----------
|-------------------


Thanks in advance!
Last edited by saw7988 at Nov 25, 2008,
#2
So the next chord I've seen differently:


|-------------
|--0---2---2--
|--1---1---1--
|--3---3---3--
|--2---1---2--
|-------------


And the 4th chord all the tabs have the same as:

|---
|-2-
|-1-
|-2-
|-1-
|---


And it finishes off with an A chord. It's that 3rd chord I don't know what to play. This should simplify the question, plz help, thanks.
#4
I can tell you this is pretty accurate since I got it from an acoustic performance and the clean sound and video helped....


Strum when you see *

INTRO:
-----*-----*-----*-------*----*-----*
e|---4-----0-----0-------4---4------5------0-----|
B|---5-----0-----0-------4---4------5------0-----|
G|---6-----1-----2-------6---5------6------1-----|
D|---6-----2-----2-------6---6------7------2-----|
A|---4-----2-----0-------6---6------7------2-----|
E|----------0-------------4---4------5------0-----|


------------------------------------------*----------*---*---*-----------------
e|--0---0---0------0-------------0----0-----------0---0---0--------------------|
B|--2^-2---0---0------------0--------0-----------0---0---0--------------------|
G|---------------2------1h2-----------1-----------1---2---4--------------------| (2)
D|---------------------------------------2-----------2---4---6-------------------|
A|---------------------------------------2-----------2---4---7-------------------|
E|---------------------------------------0-----------0---0---0-------------------|

VERSE:
----*-------*-----*------*--------------------------*-------------------*
e|--4----------------------------0----------0---0---0---------0---0---0-------------------|
B|--5------4-----2------2------0----------0---0---0---------0---0---0-------------------|
G|--4------5-----4------1------2----------1---2---4---------1---2---4-------------------|
D|--6------6-----3------2------2----------2---4---6---------2---4---6-------------------|
A|--4------3-----2------1------0----------2---4---7---------2---4---7-------------------|
E|-------------------------------------------0---0---0---------0---0---0-------------------|

(repeat 2nd part of intro)

-----*-----*-----*-------*---*------*
e|---4-----0-----0-------4---4------5-----------|
B|---5-----0-----0-------4---4------5-----------|
G|---6-----1-----2-------6---5------6-----------|
D|---6-----2-----2-------6---6------7-----------|
A|---4-----2-----0-------6---6------7-----------|
E|----------0-------------4---4------5-----------|

-------*------*------*----*-----*
e|-----0-----0-------4---4------5------0-----|
B|-----0-----0-------4---4------5------0-----|
G|-----1-----2-------6---5------6------1-----|
D|-----2-----2-------6---6------7------2-----|
A|-----2-----0-------6---6------7------2-----|
E|-----0-----0-------4---4------5------0-----|
Last edited by crmrz at Nov 26, 2008,