#1
not expecting too much out of this, but i thought ide take a shot in the dark

anyone have the tabs/can figure the tabs for DJ Splash - Crying Soul

a pretty easy song, i just suck at playing by ear
#3
I checked it out. Don't really care for the song, but it's fun to play. I had to drop it an octave because it's too high for my guitar (or probably any guitar). The song's in D so tune down a step or add two frets to everything.
Backing arpeggio (each bar 2x):

|-----------|------------|------------|----------|
|-----------|------------|------------|----------|
|-----------|------------|------------|----------|
|------9----|------10----|-------9----|------7---|
|-7-10---10-|---10----10-|----10---10-|----9---9-|
|-----------|-8----------|-10---------|-10-------|

First lead line (there are a bunch of stutters and bends here too, but here's the base notes and rhythms):

-----------------12--12---------|--------------------------------|
-------------------------12-----|-13------------------15------12-|
-12------12----12------------12-|--------------------------------|
--------------------------------|-----14------14-----------------|
--------------------------------|--------------------------------|
--------------------------------|--------------------------------|
 1   &   2   &    3   &   4   &    1   &   2   &   3   &   4   &

---------------------------------|--------------------------------|
-12------12----12-12--13--12-----|---------------------12---------|
------------------------------12-|-14------14------14------14--11-|
---------------------------------|-----12-------------------------|
---------------------------------|--------------------------------|
---------------------------------|--------------------------------|
 1   &   2   &    3   &   4   &    1   &   2   &   3   &   4   &

The second lead line is just playing with those same notes.

[IN PHIL WE TRUST]


Quote by Trowzaa
I only play bots. Bots never abandon me. (´・ω・`)