#1
Can anyone tab this song for me, please?
The song is called Hyperdrive. I can find the tab or artist of that song anywhere.
Here is the link to the song:
http://www.youtube.com/watch?v=RSRtzgiLQ20

I can find the tab or artist of that song anywhere.

I would do it myself but I have no idea how to tab songs.
#2
What do you think of this...

TUNING: DADGBE

(palm mute the open sith string)
e|---------------------------------------------------------------------------|
B|---------------------------------------------------------------------------|
G|---------------------------------------------2------2----------------------|
D|-------2p0--------4p0--------2p0------------0-0---------------------|
A|---------------------------------------------------------------------------|
D|---0----------0------------0-----------0---------------------------------|

e|---------------------------------------------------------------------------|
B|---------------------------------------------------------------------------|
G|--------------------------------------------------2--2------2----------|
D|----0h2------2p0------4p0-------2p0-----------0------0----------|
A|-------------------------------------------------------------0-----------|
D|-----------0---------0----------0----------0---------------0----------|


e|--------------------------------------------------------------------------------|
B|--------------------------------------------------------------------------------|
G|----------0----------0---------0----------------------------------------------|
D|-------4----------4---------4-------------4--------4-------4---------4------|
A|-----------------------------------------5--------5--------5--------5---------|
D|---0----------0--------0------------0--------0--------0--------0-------------|


e|---------------------------------------------------------------------------|
B|---------------------------------------------------------------------------|
G|---------------------------------------------2------2----------------------|
D|-------2p0--------4p0--------2p0------------0-0---------------------|
A|---------------------------------------------------------------------------|
D|---0----------0------------0-----------0---------------------------------|

e|-----------------------------------------------------------------------|
B|-----------------------------------------------------------------------|
G|--------------------------------------------------2------2------------|
D|----0h2------2p0------4p0-------2p0-----------0--0------------|
A|-----------------------------------------------------------------------|
D|-----------0---------0----------0----------0------------------------|


e|---------------------------------------------------------------------------------------------------------------|
B|---------------------------------------------------------------------------------------------------------------|
G|---------------------------------------------------------------------------------------------------------------|
D|--5--5--55--5--5--55\---4--4--44--4--4---44/---9--9--99--9--9--99p0----7--7--77--7---77----|
A|--5--5--55--7--7--77\---5--5--55--5--5---55/---9--9--99--9--9--99p0----7--7--77--7---77----|
D|--5--5--55--5--5--55\---4--4--44--4--4---44/---9--9--99--9--9--99p0----7--7--77--7---77----|

it ends like this:
e|---------------------------------------------------------------|
B|---------------------------------------------------------------|
G|---------------------------------------------------------------|
D|--9--9--99--9--9--99p0----7--7--77--7--77p0---0----|
A|--9--9--99--9--9--99p0----7--7--77--7--77p0---0----|
D|--9--9--99--9--9--99p0----7--7--77--7--77p0---0----|
Last edited by crmrz at Nov 26, 2008,