#1
so i stumbled across this video on youtube, and I fell in love with this song. i tried to see what chords he plays (especially the second one) but i can't get it. so after he plays the broken chords, and he gets to the strumming, can someone please tell me the chords?

thanks

oh sorry

heres the link
http://www.youtube.com/watch?v=vBUD09_4zFM&feature=related
Last edited by DannyRL at Nov 27, 2008,
#2
well it would kinda help if we knew which song it was...?
You like it
#3
standard 1 full step down

d|----------------------------------------------------------------------------------------|
A|----------------------------------------------------------------------------------------|
F|---------------------7--------------7--------------------------7----------7-----------|
C|--------------5------------5-----------5--------------4----------4---------4--------|
G|------7--7------7-------------7---------------5--5------5----------5---------------|
D|----------------------------------------------------------------------------------------|


d|-------------------------------------------------------------------------------------------|
A|-------------------------------------------------------------------------------------------|
F|-------------5------4----------5h4-------------------5-------4--------4h5---5--------|
C|------------------------5--------------5-----------------------------5-------------------|
G|---3--3--------3----------3-----------------3--3--------3------------------------------|
D|-------------------------------------------------------------------------------------------|

d|----------------------------------------------------------------------------------------|
A|----------------------------------------------------------------------------------------|
F|---------------------7--------------7--------------------------7----------7-----------|
C|--------------5------------5-----------5--------------4----------4---------4--------|
G|------7--7------7-------------7---------------5--5------5----------5---------------|
D|----------------------------------------------------------------------------------------|


d|-------------------------------------------------------------------------------------------|
A|-------------------------------------------------------------------------------------------|
F|-------------5------4----------5h4-------------------5-------4------------444--------|
C|------------------------5--------------5-----------------------------5------555--------|
G|---3--3--------3----------3-----------------3--3--------3-----------------333--------|
D|-------------------------------------------------------------------------------------------|


verse:

(Strum)
d|--------------------------------------|
A|--------------------------------------|
F|-----7-----7-----5-----4------------| (2)
C|----5------4----5------5------------|
G|----7------5----3------3------------|
D|---------------------------------------|

d|-------------------------------------------------|
A|------------------------(0)------(0)------------|
F|-----------7----7-------9-------11------------| (2)
C|---2------7----7------10------12-------------|
G|---2------5----5-------x-------x---------------|
D|---0------------7------8-------10--------------|


chorus:
d|-------------------------------|
A|-------------------------------|
F|--7----5----------------------|
C|--5----5----5-----5---------| (2)
G|--7----3----5-----5---------|
D|-------------3-----2---------|


Solo: (2x) (there's a small variation on the 2nd, but you can figure it out)
d|---------------------------------------------------------------------------------------------|
A|---12-------------12-------------12-------13-------------13-------------13-------------|
F|--------12--12--------12--12-------12--------12--12-------12--12--------12---------|
C|----------------------------------------------------------------------------------------------|
G|----------------------------------------------------------------------------------------------|
D|----------------------------------------------------------------------------------------------|

d|---------------------------------------------------------------------------------------------|
A|---12-------------12-------------12-------10-------------10-------------10-------------|
F|--------12--12--------12--12-------12--------12--12-------12--12--------12---------|
C|----------------------------------------------------------------------------------------------|
G|----------------------------------------------------------------------------------------------|
D|----------------------------------------------------------------------------------------------|

bridge:

d|-----------------------------------|
A|---------------(0)------------------|
F|--7-----7------9------9-----------| (2)
C|--5----4------10-----9------------|
G|--7----5------x-------7------------|
D|---------------8---------------------|


chorus...

outro:
d|----3------3-------3-----3---------------------3--------------------------------|
A|----3------3-------3-----3---------------------3---------------------------------|
F|----0------0-------0------0-----2 times------0----------------------------------|
C|----2------2------0------0---------------------2--------------------------------|
G|----2------3------2------2---------------------2--------------------------------|
D|----0--------------3------2---------------------0------------------------------|
Last edited by crmrz at Nov 28, 2008,