#2
main riff:

e|--------------------------------------------------------------------|
B|------------6-x--4-6~--------------------------------------------|
G|------------6-x--5-6~--------6-5--------8/10--8--------------|
D|---3--3-------------------/4---------/6--------------10---------|
A|--------------------------------------------------------------------|
E|--------------------------------------------------------------------|

e|---------------------------------------------------------|
B|------------6-x--4-6~---/7---6--4---6p4-----------|
G|------------6-x--5-6~---/8---6--5---6p5-----------|
D|----8-8----------------------------------------6-------|
A|---------------------------------------------------------|
E|---------------------------------------------------------|