#2
Well, I can't , only the riff...

standard 1/2 step down

e|---------------------------------------------------------------------------|
B|---------------------------------------------------------------------------|
G|---------------------------/9--9----7-------------------------------------|
D|---------------------------/9--9----7--------------------------------------|(repeat)
A|--2------------------------/7--7----5--------------------------------------|
E|--0--0--3b--0--3b--0---------------------6-5---3--------------------|

e|---------------------------------------------------------------------------|
B|---------------------------------------------------------------------------|
G|---------------------------------------------------------------------------|
D|---------------------------------------------------------------------------|(repeat)
A|---------------------------/7--7----5--------------------------------------|
E|--0--0--3b--0--3b--0---------------------6-5---3--------------------|
Last edited by crmrz at Nov 28, 2008,