#2
I was trying to tab it, but my internet stopped twice, there's something wrong with that page...anyway I tabbed most of it...

standard 1/2 step down

e|---------------------------------------------------------------------------------|
B|---------------------------------------------------------------------------------|
G|-----------2--1--2---4---------------------------------------------------------|
D|-------2--2--1--2---4--------2-------2---4--4-----(4 times)---------------|
A|----4--2-------------------4--2---4---2---4--4-------------------4-----------|
E|----4-----------------------4------4--------------------------------4----------|

e|-----------0----------------0--------------0---------------0---------------2-------|
B|--------------4---------------4---------------4--------------------------------------|
G|-------4---------------4---------------4---------------2----2---------4-------4---|
D|---6----------------4---------------6-----------------------------------------------| (2)
A|-----------------------------------------------------0--------------2----------------|
E|--------------------------------------------------------------------------------------|


the chorus I think is only power chords..
A B A B
Db B A B (2) Db

bridge is something like this:
A B A B
Db A E B (2)

I couldn't check the rest of the song.....