#3
I broke a string trying to tab this...I'm not sure this is the right way to play it but I can't find anything else right now...looks like it's standard but 1 1/2 steps down...you better try playing it in the standard tuning to see if it's ok for you...

e|---------------------------------------------------------------------------------|
G#|------------------3-----------------------3----------------------------------|
E|-------------0-----------0----------0-----------0---------2--------0-------|
B|----------4-----4--------------4------4--------------4------4-------4----|
F#|-----5--------------------0----------------------2-------------------------|
C#|-----------------------------------------------------------------------------|

e|---------------------------------------------------------------------------------|
G#|------------------3-----------------------3---------------------------------|
E|-------------0----------0-----------0----------0----------2--------0-------|
B|----------4-----4--------------4-----4---------------4------4--------4----|
F#|-----5-------------------------------------------2------------------------|
C#|-----3--------------------2------------------------------------------------|


e|-------------------------------------------------------------------------------|
G#|------------------3-----------------------3--------------------------------|
E|-------------0-----------0----------0-----------0---------2--------0------|
B|----------4-----4--------------4------4--------------4------4-------4----|
F#|-----5--------------------0----------------------2------------------------|
C#|--------------------------------------------------------------------------|

e|--------------------------------------------------------------------------------|
G#|------------------3-----------------------3---------------------------------|
E|-------------0----------0-----------0----------0----------2--------0-------|
B|----------4-----4--------------4-----4---------------4------4---------4---|
F#|-----5----------------------------------------------------------------------|
C#|-----3--------------------2----------------------0-------------------------|
Last edited by crmrz at Nov 29, 2008,