#1
Lead Guitar Intro:
||----------------------------------------------|
||----------------------------------------------|
||----------------------------------------------|
||0-0-2-0-2-3-2-0-3-2-0-3-2-0-3-2-0|
||----------------------------------------------|
||----------------------------------------------| Repeat 2 times


||----------------------------------------------|
||----------------------------------------------|
||----------------------------------------------|
||0-0-2-0-2-3-2-0-3-2-0-3-2-0-3-2-0|
||0-0-2-0-2-3-2-0-3-2-0-3-2-0-3-2-0|
||----------------------------------------------| Repeat 2 times


||----------------------------------------------|
||----------------------------------------------|
||----------------------------------------------|
||0-0-2-0-2-3-2-0-3-2-0-3-2-0-3-2-0|
||0-0-2-0-2-3-2-0-3-2-0-3-2-0-3-2-0|
||0-0-2-0-2-3-2-0-3-2-0-3-2-0-3-2-0| Repeat 2 times

Bass Solo:
||----------------------------------------------|
||----------------------------------------------|
||----------------------------------------------|
||0-0-2-0-2-3-2-0-3-2-0-3-2-0-3-2-0|

MASSIVE AMP-BLOWING POWER-CHORD NEEDED HERE!!!!!!!!!

Guitar:
||------------------------------------------------------------|
||------------------------------------------------------------|
||------------------------------------------------------------|
||9-9-9-9-9-9-9--8-8-8-8-8-8-8--7-7-7-7-7-7-7-|
||9-9-9-9-9-9-9--8-8-8-8-8-8-8--7-7-7-7-7-7-7-|
||7-7-7-7-7-7-7--6-6-6-6-6-6-6--5-5-5-5-5-5-5-|


||------------------------------------------------------------|
||------------------------------------------------------------|
||------------------------------------------------------------|
||6-6-6-6-6-6-6--5-5-5-5-5-5-5--4-4-4-4-4-4-4-|
||6-6-6-6-6-6-6--5-5-5-5-5-5-5--4-4-4-4-4-4-4-|
||4-4-4-4-4-4-4--3-3-3-3-3-3-3--2-2-2-2-2-2-2-|


||------------------------------------------------------------|
||------------------------------------------------------------|
||------------------------------------------------------------|
||3-3-3-3-3-3-3--2-2-2-2-2-2-2--1-1-1-1-1-1-1-|
||3-3-3-3-3-3-3--2-2-2-2-2-2-2--1-1-1-1-1-1-1-|
||1-1-1-1-1-1-1--0-0-0-0-0-0-0--0-0-0-0-0-0-0-| Let last chord ring.....


||----------------------------------------------------------------|
||----------------------------------------------------------------|
||----5------5------5------5-----5------5----- 5-------------|
||--0---0--0--0--0--0--0--0--0--0--0--0----0------------|
||4-------4-----4------4------4-----4------4--4-------------|
||----------------------------------------------------------------| Slow, quietly behind spoken Vocal solo. About the rate you speak "1 and 2 and 1 and 2 and"


||---------------|
||---------------|
||4-4----------|
||3-3----------|
||3-3----------|
||2-2----------|


Solo:
||--------------------------------------------------------------|
||--------------------------------------------------------------|
||--------------------------------------------------------------|
||--------------------------------------------------------------|
||--------------------------------------------------------------|
||--------------------------------------------------------------|
Last edited by Slayer0106 at Nov 28, 2008,
#3
What do you recomend I continue it with? Some rythm or something else? I was thinking of some massive power-chord for the guitar continue from there. Ok, i made it further but i need a amazing amp blowing power-chord
Last edited by Slayer0106 at Nov 28, 2008,
#4
Seriously, take a look at the rules. It's obvious that you haven't even bothered... Once you've read them you'll know what is wrong with all of this, the title and the post.

*reported*