#1
Ok, so just wondering if anyone happen to know where to find tabs for the guitar solo in Usher's song Trading Places?

This is the actual guy playing the solo
(I am no where close at the level to try to be able to "ear-to-tab"
but it seems pretty easy and not difficult)
http://www.youtube.com/watch?v=8VAld5MsLS0

This is the instrumental.....the guitar solo starts at: 3:07
http://www.imeem.com/gman034/music/jRa2lx66/usher_trading_places_instrumental/
#2
e|-------------------------------------------------------------------xxxx-----------|
B|------------------------------------------------10---10/12\----xxxx-----------|
G|---------------------------------------9/11----------------------xxxx-----------|
D|---7/9---9/11--11/12---12/14-------------------------------xxxx-----------|
A|-------------------------------------------------------------------xxxx-----------|
E|-------------------------------------------------------------------xxxx-----------|


e|---------------------------------xxxx--------------------xxxx-----------------------------|
B|---------------------------------xxxx--------------------xxxx------------------------------|
G|--9/11--9---7--7h9---9~\---xxxx---7--9bp7------xxxx---9/11--9--7--7h9--7\---|
D|---------------------------------xxxx----------------9\-xxxx-------------------------------|
A|---------------------------------xxxx--------------------xxxx-----------------------------|
E|---------------------------------xxxx--------------------xxxx----------------------------|


e|----------------------------------9h10p9-----------------9h10p9------------------------|
B|---------------------------------------------10-----------------------10-------------------|
G|--6h7p6------------9p7-----------------------11/12-------------------11---------------|
D|-----------7h9p7---------9\---------------------------------------------------12---------|
A|----------------------------------------------------------------------------------------------|
E|-----------------------------------------------------------------------------------------------|

e|---9h10--9h10--9h10p9---------------9h10-9h10p9--------------------------|
B|-----------------------------10-------------------------------10---------------------|
G|---------------------------------11--------------------------------11----------------|
D|-------------------------------------12---------------------------------12-----------|
A|----------------------------------------------------------------------------------------|
E|----------------------------------------------------------------------------------------|

e|--9h10--9h10p9--10--10/12---10---12--12/14----17p14-------12h14p12-------------------|
B|----------------------------------------------------------------------15----------------14h15---12----|
G|-----------------------------------------------------------------------------------------------------------|
D|-----------------------------------------------------------------------------------------------------------|
A|-----------------------------------------------------------------------------------------------------------|
E|-----------------------------------------------------------------------------------------------------------|


e|-------------10p9-----------------------------|
B|---10h12-----------10------------------------|
G|---------------------------9/11----------------|
D|-------------------------------------------------|
A|-------------------------------------------------|
E|-------------------------------------------------|
#3
I wish there was a thank you button

I havent tried it out yet....but THANK YOU!!!

crmrz & Ultimate-Guitar FTW!!