#1
Hey UG. =]

I'm a lurker here (Gonna post more now though haha), but I'm just wondering who else has heard the song Electro Rock by Sworn.

It's an awesome Electro song by a solo artist on MySpace and who works for Neversoft (Game Publishing) USA.

Just wondering if someone could Tab this song by ear, possibly including the solos+bridges. I understand that some parts of the song are electronically created/edited, but I don't see how that could be a major problem. Practically anything can be tabbed, right? =D

It doesn't seem too hard of a song and I'd give it a crack myself, if I was more experienced with the guitar.

Song link: http://youtube.com/watch?v=EFl8GZl8N_4


Any contributions towards this will be greatly appreciated, and I hope you love the song as much as I do.


-Ash
Last edited by AshleyAlden at Nov 28, 2008,
#2
The intro, the riff, and some guitar.....


drop D tuning


e|---------------------------------------------------------------------------|
B|---------------------------------------------------------------------------|
G|----------------0---------------------------4-----------------------------|
D|---------2--------2------2----------5----------5------5-----------------|
A|------2----2---------2----------5-----5-----------5---------------------|
D|---2--------------------------5------------------------------------------|


e|----------------------------------------------------2-----------------------|
B|--------------------1------------------------------3-------------------------|
G|------------2---------0----2--------------4------4-------------------------|
D|--------2------2--------2--------------4-----4---4-------------------------|
A|----0--------------------------------2-------------2--------------------------|
D|-------------------------------------------------------------------------------|

e|----------------------------------------------------------------------------------------|
B|-----------------------------------------------------------------------------------------|
G|------------------------------------------------------------------------------------------|
D|---2----0h2-----------------------------2---xx---7-----2-----0h2------------------|
A|---2----0h2-----(x--times)----------2---xx---7-----2-----0h2-------------------|
D|---2----0h2-----------------------------2---xx---7-----2-----0h2-------------------|

The following numbers above the tab indicate how many times the piece is played..

--------(4)------------(4)---------------(4)---------------(4)
e|--7p0-3p0------8p0-3p0------10p0-5p0--------8p0-5p0---------|
B|---------------------------------------------------------------------------|
G|---------------------------------------------------------------------------|
D|---------------------------------------------------------------------------|
A|---------------------------------------------------------------------------|
D|---------------------------------------------------------------------------|


-----------(4)-----------------(4)---------------(4)-------------(2)
e|----12p0-10p0-----14p0--10p0----15p0-10p0---19p0-15p0----15\-------|
B|---------------------------------------------------------------------------------------|
G|--------------------------------------------------------------------------------------|
D|-------------------------------------------------------------------------------------|
A|--------------------------------------------------------------------------------------|
D|-------------------------------------------------------------------------------------|

--------(8)-----------(8)---------(8)-----------(8)
e|----12-7p0----10-7p0----10-3p0-----10-5p2----------------------|
B|---------------------------------------------------------------------------|
G|---------------------------------------------------------------------------|
D|---------------------------------------------------------------------------|
A|---------------------------------------------------------------------------|
D|---------------------------------------------------------------------------|


---------(8)----------(8)-----------(8)-----------(4)
e|----12-7p0----15-10p7---16-12p8----19-14p11----19\---------|
B|---------------------------------------------------------------------------|
G|---------------------------------------------------------------------------|
D|---------------------------------------------------------------------------|
A|---------------------------------------------------------------------------|
D|---------------------------------------------------------------------------|
Last edited by crmrz at Nov 29, 2008,