#1
are the first solos to sweet child o mine like this

http://uk.youtube.com/watch?v=ljip7na9-ys

or

E:|-------------------------------------------------------------|
B:|---10---8--7-----10--8--7----10---8------10---8-----10--8---|
G:|-------------------------------------9------------9----------|
D:|-------------------------------------------------------------|
A:|-------------------------------------------------------------|
E:|-------------------------------------------------------------|

E:|--------------------------------10--------------------|
B:|-10--8-7hb--(7)----7-^------------(7)-----10----8--7-|
G:|------------------7-----------------------------------|
D:|------------------------------------------------------|
A:|------------------------------------------------------|
E:|------------------------------------------------------|

E:|------------------------10----10--8-------/12--------|
B:|-10---8----7-----/10-^--------------------------------|
G:|------------------------------------------------------|
D:|------------------------------------------------------|
A:|------------------------------------------------------|
E:|------------------------------------------------------|


E:|--12---12--10---10-(10)-8---7-^--(7)----------------|
B:|-----------------------------------------8------------|
G:|---------------------------------------------7-~~~~~~~|
D:|------------------------------------------------------|
A:|------------------------------------------------------|
E:|------------------------------------------------------|

E:|-----------------------10---10-^--(10)-------------17----(17)|
B:|-10-^--(10)p8---10-^-------------------17-^---(17)-------(17)|
G:|-------------------------------------------------------------|
D:|-------------------------------------------------------------|
A:|-------------------------------------------------------------|
E:|-------------------------------------------------------------|


or a mixture of both????
Last edited by wasd123 at Nov 29, 2008,
#2
i think its the 1st one since i looked at him playing in tokyo and paris and it looks like he was playing like that