#1
Has anyone got a good tab of Death Penalty by Witchfinder General? I'm looking for a good tab of this classic doom metal song. The only one I did find had only the main riff (It's here on UG). There's a fair bit more to the song, though not to much. If anyone can point me to this tab, or possibly tab it for prosterity (I am not nearly qualified to tab anything past Smells like teen spirit), I would be eternally grateful.


EDIT:

And here is a linky to the song on youtube.
Occupation: Shredding like Enron on Audit Day
Last edited by Ch85us2001 at Nov 29, 2008,
#2

|--------------------------------------------
|--------------------------------------------
|-------------------------------------------- Riff A
|-------------------------------------------- Intro/Chorus
|-2--2--578--------578-----------------------
|-0--0--356--XXX---356-----------------------

|--------------------------------------------
|--------------------------------------------
|-------------------------------------------- Riff B
|-------------------------------------------- First, Second, Fourth Verse
|-2--2-2---5--5-5----8--8-8--8---------------
|-0--0-0---3--3-3----6--6-6--6---------------

|--------------------------------------------
|--------------------------------------------
|-2-2-2-2-2-2-2-2-7-2-7-2--------------------Riff C
|-0-0-0-0-0-0-0-0-5-0-5-0--------------------Third Verse And First Solo
|--------------------------------------------
|--------------------------------------------


A X 4
B X 5
A X 4
B X 5
A X 4
C X 18
A X 3
B X 5
A X 3



This is all I've got so far. Missing First solo, the accoustic part at the end and the solo at the end. My first tab.
Occupation: Shredding like Enron on Audit Day
Last edited by Ch85us2001 at Nov 30, 2008,