#2
gimmie your e-mail address and I'll send you the Guitar Pro file of it if you want, unless you want another program
#3
e|-------0-----0-----0-----0---------0------3--------0----------|
B|------------------------------------------------------------------|
G|------------------------------------------------------------------|
D|----------2----2------2---------------2-------2----------------|
A|---0---------------------------4---------------------------------|
E|-------------------------------------------------------------------|

e|--------0---------------0-------------------0------0--------0-------0------------|
B|----------------4-----------------4------------------------------------------------|
G|------------------------------------------------------------------------------------|
D|----------2-----------------2-----------------2--------2--------2-----------------|
A|----------------------------------------0-------------------------------------------|
E|---4---------------4---------------------------------------------------------------|


chords:
e|---0--------0-----0-------0---------2------4-------0------0--------|
B|---0--------0-----0-------0---------2------4-------0------0--------|
G|---2--------6-----4-------2---------4------6-------4------2--------|(2)
D|---2--------6-----6-------2---------4------6-------6------2--------|
A|---0--------4-----6-------0---------2------4-------6------0--------|
E|-------------------4----------------------------------4----------------|
#4

E||------------0-----------0--|-----------4-------------|
B||------5-----------5--------|-----5-----------5--L----|
G||*--------------------------|-------------------------|
D||*--------2-----2-----2-----|--------2-----2----------|
A||---0-----------------------|--4----------------------|
E||---------------------------|-------------------------|



-----0-----------0--------|-----------0-----------0--|-----------4-------------|
-----------4-----------4--|-----5-----------5--------|-----5-----------5--L----|
--------------------------|--------------------------|-------------------------|
--------2-----2-----2-----|--------2-----2-----2-----|--------2-----2----------|
--------------------------|--0-----------------------|--4----------------------|
--4-----------------------|--------------------------|-------------------------|




-----0-----------0--------|-----------0-----------0---||--0------------------|
-----------4-----------4--|-----5-----------5---------||--5------------------|
--------------------------|--------------------------*||--x------------------|
--------2-----2-----2-----|--------2-----2-----2-----*||--2------------------|
--------------------------|--0------------------------||--0------------------|
--4-----------------------|---------------------------||---------------------|



--0----------------|--0----------------|--0----------------|--2----------------|
--0----------------|--0----------------|--0----------------|--2----------------|
--6----------------|--4----------------|--2----------------|--4----------------|
--x----------------|--6----------------|--2----------------|--4----------------|
--4----------------|--6----------------|--0----------------|--2----------------|
-------------------|-------------------|-------------------|--2----------------|



--4----------------|--0----------------|--0----------------||
--4----------------|--0----------------|--0----------------||
--6----------------|--4----------------|--2----------------||
--6----------------|--6----------------|--2----------------||
--4----------------|--6----------------|--0----------------||
--4----------------|-------------------|-------------------||


That's what I got