Page 1 of 58
#1
Howdy ho boys and... Boys. I haven't really actively done anything productive since my promotion, so here is my attempt at bringing something in.

For those of you who weren't around during the original, It was a popular game that made for good bragging rights and a healthy sense of competition. So i'm hoping to bring back some of that feel with this.

So I hope you enjoy this relic that i'm reviving for you guys. Here are the rules copied from the original....

The Basic Guidelines of this Game is that you guess the previous Tab and if correct, post your own.

RULES:

1. No Posting Tabs if you haven't answered the previous tab.

2. Always State Tuning and Genre When Posting a Tab.

3. Try and keep Off-Topic Conversation to a minimum, avoid Double-Posting etc.

4. You can either use CODE or you can cut an image from a PrintScreen from Guitar Pro or Powertab. If you do the latter, make sure you don't name the picture after the featured song.

5. You can submit Tabs that you worked out yourself. But only if you know you are proficient with your ears. If it's crap no-one will get it.

6. In the case that the thread drops to page 2 and/or the tab isn't guessed within 24 hours, the submitter must reveal his answer and post a new tab.

7. If you're using CODE, make your tabs look neat... It's generally suckier for participants to guess if the layout of the tab is bollocks. Be sure to use logical spacing and appropriate use of Bars.

8. No more than one guess at a time.


I'm also adding a new rule for smoothness. If you guess a tab correctly and the poster of the original tab isn't around to confirm it, you can post post a link to the tab of the song and refer to the part in question being guessed. Obviously that is for tabs that are already submitted online. It'll allow the game to continue without needless waiting.

Also, don't submit fucking obscure as hell tabs. We want to keep it going and that wont happen if you start putting tabs for Brenoritvrezorkre and shit. So keep that in consideration.


Heres the Leaderboard.
Leaderboard

1. Dyer's Eve         10
2. webbtje             9
3. TheMantipede        8
4. MetalMessiah665     7
5. destroy_techno      6
   dminishedthingy     6
6. Contraband          3
   poopsmith666        3
   Stranglehold        3
7. AzureNight          2
   progbass            2
   Shinozoku           2
   Slaytanic1993       2
8. 666Pounder          1
   ctb                 1
   dead-fish           1
   Duncang             1
   guitarsonist        1
   korinaflyingv       1
   linfield4466         1
   Lucid Interval      1
   madbasslover        1
   piratemetalhead     1
   we built a tree     1
   \Powerslave/        1


Now I hope that this one is goes better than the second attempt.

Lets start with an easy one.

Standard Tuning
Progressive Metal

e-------------------------------------------|-------------------------------------------|
B----0-------0-------0-------0-------0----0-|----0-------0-------0-------0-------0----0-|
G-14---14-13---13-11---11-11---11-11---11---|-14---14-13---13-11---11-11---11-11---11---|
D-------------------------------------------|-------------------------------------------|
A-------------------------------------------|-------------------------------------------|
E-------------------------------------------|-------------------------------------------|


e-------------------------------------|-------------------------------------|
B----0-------0------0-----0-----0---0-|----0-------0------0-----0-----0---0-|
G-10---10-10---11-7---7-7---7-7---7---|-10---10-11---11-7---7-7---7-7---7---|
D-------------------------------------|-------------------------------------|
A-------------------------------------|-------------------------------------|
E-------------------------------------|-------------------------------------|


P.S. You can ask for hints if you get stuck.
LAMMERGEIER
Disclaimer: Dyer's Eve can not be held responsible for the loss of time spent or the insult to your aural senses as a result of exploring this link
#2
Fuck my arse with broken glass, it's back!

/me gets guitar

EDIT: Deliverance.

And Brenoritvrezorkre are awesome
Quote by justinb904
im more of a social godzilla than chameleon

Quote by MetalMessiah665
Alright, I'll give them a try, Japanese Black Speed rarely disappoints.

Quote by azzemojo
Hmm judging from your pic you'd fit in more with a fat busted tribute.
Last edited by duncang at Nov 30, 2008,
#4
Quote by duncang
Fuck my arse with broken glass, it's back!

/me gets guitar

EDIT: Deliverance.

And Brenoritvrezorkre are awesome

I concur... Still have no idea how the fuck to say their name though .
Quote by dminishedthingy
It didn't seem possible, but apparently Messiah can spam even more now.


Quote by \Powerslave/
I can see it now. "Dark Thrones and Black People".


Quote by \Powerslave/
I pretty much wank something small and sleek.

ololololololol


JOIN THE NEKROGESTAPO!
#5
Drop C#
Progressive Black Metal
||-----------------------------|------------------------------|
||o-------------------------1--|------------------------------|
||--------------------------2--|------------------------------|
||--------------6-3---------2--|-----10-7-----3-2-------------|
||o-------------6-3---------0--|-----10-7-----3-2-------------|
||--0-0-0-0-0-0-6-3-0-0---0----|-0-0-10-7-0-0-3-2-0-0-0-0-0-0-|
Quote by justinb904
im more of a social godzilla than chameleon

Quote by MetalMessiah665
Alright, I'll give them a try, Japanese Black Speed rarely disappoints.

Quote by azzemojo
Hmm judging from your pic you'd fit in more with a fat busted tribute.
#6
is it something by Behemoth.
Quote by -Collapse-
Oh, hello mister tracer! Lets dance!
Quote by CodySG
And we all poop in the sandwiches!


New Drug Chat, Eh? CLICK HERE


pass: misterhoffman
#7
Yes. Behemoth are a well known progressive black metal band that use drop C# tuning.
Quote by justinb904
im more of a social godzilla than chameleon

Quote by MetalMessiah665
Alright, I'll give them a try, Japanese Black Speed rarely disappoints.

Quote by azzemojo
Hmm judging from your pic you'd fit in more with a fat busted tribute.
#9
Yep, I'm sure it's that, I actually started learning that song a few months ago.
Quote by dminishedthingy
It didn't seem possible, but apparently Messiah can spam even more now.


Quote by \Powerslave/
I can see it now. "Dark Thrones and Black People".


Quote by \Powerslave/
I pretty much wank something small and sleek.

ololololololol


JOIN THE NEKROGESTAPO!
#10
Quote by duncang
Yes. Behemoth are a well known progressive black metal band that use drop C# tuning.

they are the bolded things, at least...
Quote by -Collapse-
Oh, hello mister tracer! Lets dance!
Quote by CodySG
And we all poop in the sandwiches!


New Drug Chat, Eh? CLICK HERE


pass: misterhoffman
#11
Actually Behemoth aren't Black Metal anymore and use C# Standard tuning, not drop C#.
Quote by dminishedthingy
It didn't seem possible, but apparently Messiah can spam even more now.


Quote by \Powerslave/
I can see it now. "Dark Thrones and Black People".


Quote by \Powerslave/
I pretty much wank something small and sleek.

ololololololol


JOIN THE NEKROGESTAPO!
#12
well fuck me sideways with a bent raddish. I always thought it was drop C#.

and of fucking course I know they aren't Black metal ANYMORE, but they used to be, and it could have been a song from that era.
Quote by -Collapse-
Oh, hello mister tracer! Lets dance!
Quote by CodySG
And we all poop in the sandwiches!


New Drug Chat, Eh? CLICK HERE


pass: misterhoffman
#14
Drop D 
Technical Death Metal

||----------------------------------------------------------|
||o----------------9-------------------------6-------------|
||---------------------0------------------------0----------|
||-------------------------0h6---------------------0h6----|
||o--8-8-8---8------------------8-8-8---8-------------------|
||----------------------------------------------------------|

||----------------------------------------------------------|
||o----------------5-------------------------2-------------|
||---------------------0------------------------0-----------|
||-------------------------0h2---------------------0h2------|
||o--4-4-4---4------------------4-4-4---4------------------|
||----------------------------------------------------------|


If you know the song, you'll definitely get it.
#15
Quote by TheMantipede
Drop D 
Technical Death Metal

||----------------------------------------------------------|
||o----------------9-------------------------6-------------|
||---------------------0------------------------0----------|
||-------------------------0h6---------------------0h6----|
||o--8-8-8---8------------------8-8-8---8---------------|
||----------------------------------------------------------|

||----------------------------------------------------------|
||o----------------5-------------------------2-------------|
||---------------------0------------------------0----------|
||-------------------------0h2---------------------0h2----|
||o--4-4-4---4------------------4-4-4---4---------------|
||----------------------------------------------------------|


If you know the song, you'll definitely get it.


Nile?
#16
Drop D buddy
Quote by -Collapse-
Oh, hello mister tracer! Lets dance!
Quote by CodySG
And we all poop in the sandwiches!


New Drug Chat, Eh? CLICK HERE


pass: misterhoffman
#19
Quote by metal Lover
Nile?

Nile are Drop A.
Quote by dminishedthingy
It didn't seem possible, but apparently Messiah can spam even more now.


Quote by \Powerslave/
I can see it now. "Dark Thrones and Black People".


Quote by \Powerslave/
I pretty much wank something small and sleek.

ololololololol


JOIN THE NEKROGESTAPO!
#20
Anyone need hints or has everyone lost all hope?

If Dminishedthingy were here he'd probably get it.
#25
Progressive Death Metal
E Standard
-----------------------------------------------------------------------------------------------------------
--------------------------------------------------------9--10--9-----------------------------------------
---------------------------------------------------------------------10--9--10--9--7--6--7--7--9--99999999
-------6--7--9--10--9--7--6---------------------------------------------------------------------------
7--8-----------------------------8--7--8--7-------------------------------------------------------------
------------------------------------------------------------------------------------------------------------


No official tab, but if you play it, it should be obvious.
Last edited by dminishedthingy at Nov 30, 2008,
#26
Lykathea Aflame - Land Where Sympathy is Air?
LAMMERGEIER
Disclaimer: Dyer's Eve can not be held responsible for the loss of time spent or the insult to your aural senses as a result of exploring this link
#27
Dammit, it sounds really familiar but I can't place my finger on it...
Quote by dminishedthingy
It didn't seem possible, but apparently Messiah can spam even more now.


Quote by \Powerslave/
I can see it now. "Dark Thrones and Black People".


Quote by \Powerslave/
I pretty much wank something small and sleek.

ololololololol


JOIN THE NEKROGESTAPO!
#28
Dyers got it.

lulz its even in my location...
Last edited by dminishedthingy at Nov 30, 2008,
#29
Oh, then never mind, I don't even have Lykathea Aflame. The riff sounded very Chuck Schuldiner-esque (at least the way I was playing it ).
Quote by dminishedthingy
It didn't seem possible, but apparently Messiah can spam even more now.


Quote by \Powerslave/
I can see it now. "Dark Thrones and Black People".


Quote by \Powerslave/
I pretty much wank something small and sleek.

ololololololol


JOIN THE NEKROGESTAPO!
#30
Right-o, another easy one on the way.

Standard Tuning
Progressive Metal

e------------------------------------|---------------14-----14------------|
B-12-----12----------12-----12-------|-12-----12-------------------13\----|
G----9-9---9-9-9-9-9----9-9----9-9-9-|----9-9----9-9----9-9----9-9-11\----|
D------------------------------------|------------------------------------|
A------------------------------------|------------------------------------|
E------------------------------------|------------------------------------|


e------------------------------------|---------------14-----15-------16----17\-|
B-12-----12----------12-----12-------|-12-----12-------------------------------|
G----9-9---9-9-9-9-9----9-9----9-9-9-|----9-9----9-9----9-9----10-10----11-----|
D------------------------------------|-----------------------------------------|
A------------------------------------|-----------------------------------------|
E------------------------------------|-----------------------------------------|


Don't wait for a confirmation from me, as i'm going to bed now. But it's easy enough.
LAMMERGEIER
Disclaimer: Dyer's Eve can not be held responsible for the loss of time spent or the insult to your aural senses as a result of exploring this link
#31
Cynic - Veil of Maya (tried learning it about two weeks ago )
Quote by dminishedthingy
It didn't seem possible, but apparently Messiah can spam even more now.


Quote by \Powerslave/
I can see it now. "Dark Thrones and Black People".


Quote by \Powerslave/
I pretty much wank something small and sleek.

ololololololol


JOIN THE NEKROGESTAPO!
#32
Cynic - Veil of Maya.
I was learning that song last night, yay me!
Edit: Go to hell MetalMessiah
#33
I don't even try Cynic songs, because I know that I'll eventually get to the solo

And yeah Messiah, i guess that LA riff does kinda sound like the outro to Crystal Mountain?
#34
Tuning - Eb Standard
Genre - Death Metal
d# I --------------------------------------I
A# I --------------------------------------I
F# I -----------------------------2--------I
C# I -2h5p2--1h4p1--4-4---0--------I
G# I ---------------------2-2-------------I
D# I --------------------------------------I

d# I --------------------------------------I
A# I --------------------------------------I
F# I ---------------------------------------I
C# I ----------------------------3---------I
G# I -3h6p3--2h5p2--5--5--1---------I
D# I ---------------------3--3-----3-2-0-I


Shouldn't be too hard.

EDIT: Yeah, that's exactly what it reminded me of (I was playing it almost the same way as Crystal Mountain too) but then I realized it was in E standard and also wasn't exactly like it.
Quote by dminishedthingy
It didn't seem possible, but apparently Messiah can spam even more now.


Quote by \Powerslave/
I can see it now. "Dark Thrones and Black People".


Quote by \Powerslave/
I pretty much wank something small and sleek.

ololololololol


JOIN THE NEKROGESTAPO!
#35
Hammer Smashed Face?
Quote by -Collapse-
Oh, hello mister tracer! Lets dance!
Quote by CodySG
And we all poop in the sandwiches!


New Drug Chat, Eh? CLICK HERE


pass: misterhoffman
#36
hammer smashed face?

EDIT: damn you poopsmith
The most merciful thing in the world, I think, is the inability of the human mind to correlate all its contents. We live on a placid island of ignorance in the midst of black seas of infinity, and it was not meant that we should voyage far.
#38
Yeah.

EDIT: Sorry most of the chords got ****ed up.
Quote by dminishedthingy
It didn't seem possible, but apparently Messiah can spam even more now.


Quote by \Powerslave/
I can see it now. "Dark Thrones and Black People".


Quote by \Powerslave/
I pretty much wank something small and sleek.

ololololololol


JOIN THE NEKROGESTAPO!
#39
i'm pissed. seeing as i don't play guitar i doubt i'll ever get another one. *goes off into the corner to sulk*
The most merciful thing in the world, I think, is the inability of the human mind to correlate all its contents. We live on a placid island of ignorance in the midst of black seas of infinity, and it was not meant that we should voyage far.
#40
Hey everyone, lets all laugh at the bassist! *points and laughs at the puny bassist*
Quote by dminishedthingy
It didn't seem possible, but apparently Messiah can spam even more now.


Quote by \Powerslave/
I can see it now. "Dark Thrones and Black People".


Quote by \Powerslave/
I pretty much wank something small and sleek.

ololololololol


JOIN THE NEKROGESTAPO!